Song name
# A B C D E F G H I J K L M N O P Q R S T U V W X Y Z

Benjamin Francis Leftwich - Is That You On That Plane tab

-------------------------------------------------------------------------------
                             IS THAT YOU ON THAT PLANE - Benjamin Francis Leftwich
-------------------------------------------------------------------------------
Tabbed by: Scott:)
E-mail: Scottnorris152@gmail.com

Tuning: Standard

Intro
e|----------------------------------------------------------------------------|
B|-----------0----------------0-------------------0------------------0--------|
G|------11-----11---11----11-----11---11-----11------11---11----11-----11---11|
D|----9----9------9-----9----9------9------9----9-------9-----9----9------9---|
A|-11-----------------9-------------------------------------7-----------------|
E|--------------------------------------11------------------------------------|

e|--------------------------------------------------------------------------|
B|---------0-----------------0----------------------------------------------|
G|----11-----11---11---8---8---8-6------------------------------------------|
D|--9----9------9-----------------------------------------------------------|
A|7------------------7---7--------------------------------------------------|
E|--------------------------------------------------------------------------|

Verse
(Play every bar twice and end every stanza with the little end run)

I know that you are leaving
but I hope that you can stay
The hardest part about healing
was knowing what you would say

When your garden was covered in snow, love
I could tell what you wanted to say
And then when you called me again, love
You told me you were going to break

Chorus

Is that you on that plane
Is that you in the sky again

Verse
I know that it's been through, yeah
'cause I hear it in your voice
I know you tried to fight it
Did you ever have a choice

When we walked through Rome in the evening
getting high in little bars
At least we took what we were seeing
and kept it in our little hearts

Chorus
Is that you on that plane
Is that you in the sky again
Is that you on that plane
Is that you in the sky again

Break
e|---------------------------------------------------------------------------|
B|---------0---------------0-------------------------------------------------|
G|-----1-----1---1-----3-----3---3-------------------------------------------|
D|---2---2-----2-----4---4-----4---------------------------------------------|
A|---------------------------------------------------------------------------|
E|-0----------------2--------------------------------------------------------|

Oh, let it go
It is done now
You have rolled and rolled away
Let it never be said you were missing

e|---------------------------------------------------------------------------|
B|---------------------------------------------------------------------------|
G|---------------------------------------------------------------------------|
D|-6--4----------------------------------------------------------------------|
A|-6--4----------------------------------------------------------------------|
E|-4--2----------------------------------------------------------------------|

'cause you're never missing to me

Verse
I know that you are leaving
but I hope that you can stay
The hardest part about healing
was knowing what you would say

e|-------|
B|-0-----|
G|-11----|
D|-9-----|
A|-11----|
E|-------|

************************************

| /   slide up
| \   slide down
| h   hammer-on
| p   pull-off
| ~   vibrato
| +   harmonic
| x   Mute note
| b   Bend
| pb  Pre-bend
| br  Bend release
| pbr Pre-bend release
| brb Bend release bend

************************************
Tap to rate this tab
# A B C D E F G H I J K L M N O P Q R S T U V W X Y Z