Song name
# A B C D E F G H I J K L M N O P Q R S T U V W X Y Z

Benjamin Francis Leftwich - Shine tab

The version that I listened to had a capo on 4th fret an standard tuning.
This pattern is played throughout the whole song. Enjoy!

   C                       F          C               G        Am
E--------x-----------x--|----------x---------x--|-----------x--------x--|
B--1-----x--1--------x--|--1-------x--1------x--|-----0-----x--1-----x--|
G-----0--x--------0--x--|-----2p0--x---------x--|--0-----0--x-----0--x--|
D--------x-----------x--|--3-------x----2p0--x--|-----------x--------x--|
A--3-----x--3--------x--|----------x--3------x--|-----------x--0-----x--|
E--------x-----------x--|----------x---------x--|-----3-----x--------x--|
   F           C
E-----------------|
B--1-----------1--|
G-----0h2p0----0--|
D--3--------3-----|
A--------------3--|
E-----------------|

I could live in a different place
With a different house and a different name
I could sing you your favorite song
Yeah, you'd sing along, you'd sing along

I could wrap you in your favorite clothes
And kiss your face just so you know
That I'm the one who has got your back
Now turn around and don't be sad

I hope you find the love that's true
So the morning light can shine on you
I hope you find what you're looking for
So your heart is warm forever more

I could fly you away with me
To the furthest place you'll ever be
We could smoke 'til the sun goes down
And without a sound, without a sound

We'd fall asleep by the big blue sea
With open eyes so we could see
The way it shines for you and I
You know it'll shine until we fly

I hope you find the love that's true
So the morning light can shine on you
I hope you find what you're looking for
So your heart is warm forever more

I could wait with you by the water
I could wait with you for the winter to come
I could stand with you with your snow boots on

I hope you find the love that's true
So the morning light can shine on you
I hope you find what you're looking for
So your heart is warm forever more
I hope you find what you're looking for
So your heart is warm forever more
Tap to rate this tab
# A B C D E F G H I J K L M N O P Q R S T U V W X Y Z