Song name
# A B C D E F G H I J K L M N O P Q R S T U V W X Y Z

Benjamin Francis Leftwich - Pictures tab

This is what I make out to be the tabs and I find them pretty accurate so give them a go! :)

Capo - 6th Fret
Standard - Tuning


Intro/Verse/Bridge

e|------------------------|------------------------|------------------------|
B|----3-----------3-------|----3-----------3-------|----3------------3------|
G|----0-----0-----0-----0-|----0-----0-----0-----0-|----0-----0------0----0-|
D|-------2-----------2----|-------0-----------0----|-------2-----------2----|
A|-3-----------3----------|-2-----------2----------|------------------------|
E|------------------------|------------------------|-0-----------0----------|

e|------------------------|
B|-3--3-----3-----3-----3-|
G|-2--4-----2-----0-----0-|
D|-------0-----0-----0----|
A|------------------------|
E|------------------------|

C                 G         Em
If you crash your car into,
     D                    C
Your best friends house,
             G
Would you be quiet as,
Em         D
Words come out of their mouth



C         G
Stop..... don't do it
Em          D
I have been waiting for it,
C         G               Em           D
Stop..... I knew it would come



C             G                 Em
If you find a god next to,
     Dm
Your girlfriends bed,
C           G
Would it be hard to,
Em                    D
Sort out your spinning head


C        G                       Em
Stop.... don't say that dear,
          D
That you wanted him here,
C        G                         Em        D
Stop.... don't give him a clear


Am     C                    Em                 D
Take a picture of them,
Am     C                    Em                 D
Take a picture of them



C           G                         Em
If you are afraid don't be,
           D                           C
I have the whole thing planned,
                   G                 Em
Well start in the ocean baby,
            D                     C
And when we find the land,
           G                  Em
We will be thankful to,
D
All of our friends,
C                G            Em
That they didn't leave us,
          D
As we got to the end



Am     C                    Em                D
Take a picture of them,
Am     C                    Em                D
Take a picture of them
Am     C                    Em                D
Take a picture of them,
Am     C                    Em                D
Take a picture of them



C      G               Em
If you find your faith in,
     D             C
Your parents god,
         G              Em
Don't be so quick to,
              D                C
Point out the flaws in it
            G                        Em
You've been around and you've seen,
D                              C
The way that things work,
               G             Em
But you need a compass to,
    D                      C
Get around your house.

I hope this helps:)
Tap to rate this tab
# A B C D E F G H I J K L M N O P Q R S T U V W X Y Z