Song name
# A B C D E F G H I J K L M N O P Q R S T U V W X Y Z

Benjamin Francis Leftwich - Shine tab

This is an acoustic version of the song.
Standard tuning
Capo on the 4th fret
Chords are basically C, F, G/C and Am7, but with some hammer-ons and pull-offs.


INTRO:

    C                   F         C           G/C      Am7         F         C

e|-------X---------X-|---------X---------X-|--------X---------X-|---------X---------X-|
B|--1----X--1------X-|----1----X----1----X-|----1p0-X--1------X-|----1----X--1------X-|
G|-----0-X--0----0-X-|--0-h2p0-X---------X-|--0-----X--0----0-X-|--0-h2p0-X--0------X-|
D|-------X---------X-|----3----X--0-h2p0-X-|--------X---------X-|----3----X---------X-|
A|--3----X--3------X-|---------X----3----X-|--------X--0------X-|---------X--3------X-|
E|-------X---------X-|---------X---------X-|----3---X---------X-|---------X---------X-|


---You play this twice. Then move on to the verse.


VERSE:

    C                    F         C          G/C      Am7        F         C

e|--------X---------X-|---------X--------X-|----1p0-X--------X-|---------X--------X-|
B|----1---X--1------X-|----1----X--1-----X-|--------X--1-----X-|----1----X--1-----X-|
G|--0---0-X--0------X-|--0-h2p0-X--0-----X-|--0-----X--0-----X-|--0--h2--X--0-----X-|
D|--------X---------X-|----3----X--------X-|--------X--------X-|----3----X--------X-|
A|----3---X--3------X-|---------X--3-----X-|--------X--0-----X-|---------X--3-----X-|
E|--------X---------X-|---------X--------X-|----3---X--------X-|---------X--------X-|


I could live in a different place
With a different house and a different name
I could sing you your favorite song
Yeah, you'd sing along, you'd sing along

I could wrap you in your favorite clothes
And kiss your face just so you know
That I'm the one who has got your back
Now turn around and don't be sad


CHORUS:

    F        C         G/C       Am7

e|----3p0-X--------X-|--------X--------X-|
B|----1---X--1-----X-|---3p1--X--1-----X-|
G|--2-----X--0-----X-|-0------X--0-----X-|
D|----3---X--------X-|--------X--------X-|
A|--------X--3-----X-|--------X--0-----X-|
E|--------X--------X-|---3----X--------X-|


I hope you find the love that's true
So the morning light can shine on you
I hope you find what you're looking for
So your heart is warm forever more


---After the chorus you play intro again and then proceed to the second verse.


I could fly you away with me
To the furthest place you'll ever be
We could smoke till the sun goes down 
And without a sound, without a sound

We'd fall asleep by the big blue sea
With open eyes so we could see
The way it shines for you and I
You know it'll shine until we fly


---Then chorus again. After that you play the bridge part.


BRIDGE:

    G/C                 C         F         G/C                 C         F

e|--------X--------X-|---------X-------X-|--------X--------X-|---------X-------X-|
B|----1---X--1-----X-|----1----X--1----X-|----1---X--1-----X-|----1----X--1----X-|
G|--0---0-X--0-----X-|--0---0--X--2----X-|--0---0-X--0-----X-|--0---0--X--2----X-|
D|--------X--------X-|---------X--3----X-|--------X--------X-|---------X--3----X-|
A|--------X--------X-|----3----X-------X-|--------X--------X-|----3----X-------X-|
E|----3---X--3-----X-|---------X-------X-|----3---X--3-----X-|---------X-------X-|

    
    G/C

e|---------X-------X---------X--------X-|
B|----1----X--0----X----3p0--X--0-----X-|
G|--0---0--X--0----X--0------X--0-----X-|
D|---------X-------X---------X--------X-|
A|---------X-------X---------X--------X-|
E|----3----X--3----X----3----X--3-----X-|


I could wait with you by the water
I could wait with you for the winter to come
I could stand with you with your snow boots on

---Then chorus again and you're done. :)

by Marexo
Tap to rate this tab
 
# A B C D E F G H I J K L M N O P Q R S T U V W X Y Z