Song name
# A B C D E F G H I J K L M N O P Q R S T U V W X Y Z

Benny Hill - Yakety Sax tab

E-----------------------------------------------|
B------8+-8+-------------------------------8----|
G-10+-------9-7---7-4-9-7------------7-9-7------|
D--------------9-5-------9-7-5-5-7-9----------|
A-----------------------------------------------|
E-----------------------------------------------|

E---------------------------------------------------|
B------8+-8+-----------------------------10---------|
G-10+-------9-7---7-4-9-7------7--7-9-11----11-9-7--|
D--------------9-5-------9-7-----------------------|
A---------------------------------------------------|
E---------------------------------------------------|

E---------------------------------------------------------|
B------------------------------------------------------7--|
G-5-7-9-10+-10+-10+-10+-10+-10+-9-7-----------------7-9-7-|
D----------------------------------9-7-5+-5+-5+-5+-7------|
A---------------------------------------------------------|
E---------------------------------------------------------|

E----------------10----------12--------------|
B-12-10-12-10-12---10-11-12------11-1010----|
G--------------------------12---------1212--|
D--------------------------------------------|
A--------------------------------------------|
E--------------------------------------------|


Play without stop, tabs are separated just to be more comfortable.

+ mean touch string and pull it down (like in blues).

This song should be playing really fast!
Tap to rate this tab
# A B C D E F G H I J K L M N O P Q R S T U V W X Y Z