Song name
# A B C D E F G H I J K L M N O P Q R S T U V W X Y Z

Benny Ibarra - Cielo tab

INTRO : G

RIFF 1
  G              C              D           G
Cielo por tu luz , por esa caricia yo seria capaz de
   C       D         G            C                 D
rendir mi ser, ya no tiene caso,  mirar hacia otro lado
           Em            C         G
todo lo que espero lo encuentro en ti. 


*CORO*

                  Em     C          G
El cielo en tu mirada,  cada madrugada 
            Em      C        D                   Em
es a donde pierdo mi confusion ,y cuando estas ausente 
 C             G           Em      C    G
te abrazo a mi mente, cielo para sobrevivir.


RIFF 2 
 G              C            D         G
Sientete segura, que no te quepa duda cuenta con mi
         C      D               G     C         D
vida y mi devocion, vivo para amarte,  para mi alejarme 
          Em       C        G
es como quedar sin respiracion 

*CORO*
                  Em    C          G
El cielo en tu mirada,   cada madrugada 
             Em       C      D                  Em  
es a donde pierdo mi confusion y cuando estas ausente 
C              G             Em    C      G
te abrazo a mi mente, cielo para sobrevivir.
     Em     C        G
cielo para poder vivir


*SOLO* G - C - D - G - C - D - G - C - 

*SOLO*
e|-5/7-5-5----------5/7-5-5-------------------5/7-5-5-----------------|
B|---------8-8~.-8.---------8-8/10~.-10/12~.----------8-8~.-10-12-13~-|
G|--------------------------------------------------------------------|
D|--------------------------------------------------------------------|
A|--------------------------------------------------------------------|
E|--------------------------------------------------------------------|

e|-----------------------------------------------------------|
B|-12~-10~/----8-7-7h8-----------1-1-0-------0---------------|
G|-----------7---------7-7-5-4-0-------0-0-2---2.-0----------|
D|--------------------------------------------------4.-2-0---|
A|-----------------------------------------------------------|
E|-----------------------------------------------------------|

e|-5/7-5-5----------------------3-3h5-3.--|
B|---------8-8/10./--8/---3-3h5-----------|
G|----------------------------------------|
D|----------------------------------------|
A|----------------------------------------|
E|----------------------------------------|


*CORO*
                   
                  Em    C          G
El cielo en tu mirada,   cada madrugada 
             Em       C      D                  Em  
es a donde pierdo mi confusion y cuando estas ausente 
C              G             Em    C      G
te abrazo a mi mente, cielo para sobrevivir.
     Em     C        G
cielo para poder vivir

       Em      C     G
Cielo para sobrevivir 
Tap to rate this tab
 
# A B C D E F G H I J K L M N O P Q R S T U V W X Y Z