Song name
# A B C D E F G H I J K L M N O P Q R S T U V W X Y Z

Benny Walker - Summer Sun tab

First time doing a tab thought I needed to create one for this song since there isn't any.

All Guitars are standard Tuning

The acoustic chords are played throughout the whole song
Chords-
B-799877
A-577655
Esus4-778887

Electric Guitar Intro-

e|-----------------------------------------------------------------------|
B|---------------------------------------------------7------5------0-----|
G|----------------------------7-----5-----7b-----------------------------|
D|--9b-------5-------7b--------------------------------------------------|
A|-----------------------------------------------------------------------|
E|-----------------------------------------------------------------------|
X2
This intro part is also played during the chorus listen for song for timing.




There's always time for one more,
B (mute)
when you're drinking with your friends.
A
Everybody's here for a good time,
Esus4
don't let it roll till the end.
B

We're talking 'bout summer sun,
B
drinking with your friends.
A
Everybody's here for a good time,
Esus4
don't let it roll till the end.
B

When the sun goes down,
B
and the stars come out tonight.
A
Ain't no time to stop now,
Esus4
because the feelings are so right.
B


You can do it do the radio,
B
or somebody's strumming you a key.
A
you can do it while the waves roll in,
Esus4
as long as you feel free.
B


We're talking 'bout summer sun,
B
drinking with your friends.
A
Everybody's here for a good time,
Esus4
don't let it roll till the end.
B

We're talking 'bout summer sun,
B
drinking with your friends.
A
Everybody's here for a good time,
Esus4
don't let it roll till the end.
B

She can do it do the radio,
B ... (fade)
or somebody's strumming you a key.
A ...
you can do it while the waves roll in,
Esus4 ...
as long as you feel free now.
B

We're talking 'bout summer sun,
B
drinking with your friends.
A
Everybody's here for a good time,
Esus4
don't let it roll till the end.
B

Bridge
B A Esus4 B x2  (SOLO- TAB BELOW)

Electric Guitar Starts strumming the chords as well.

We're talking 'bout summer sun,
B
drinking with your friends.
A
Everybody's here for a good time,
Esus4
don't let it roll till the end.
B

We're talking 'bout summer sun,
B
drinking with your friends.
A
Everybody's here for a good time,
Esus4
don't let it roll till the end.
B


Summer sun, We are friends,
B ...       A ...
all the good times, see you in the end.
Esus4 ...                   B ...



Solo-

e|-----------------------------------------------------------------------|
B|--14b----------14-----12-----10~-----10----10-----12b------------------|
G|--------14-------------------------------------------------------------|
D|-----------------------------------------------------------------------|
A|-----------------------------------------------------------------------|
E|-----------------------------------------------------------------------|


e|-----------------------------------------------------------------------|
B|------------------------------------------------17h19b\----------------|
G|-12--12----10----9----7----5/------15h17bX10---------------------------|
D|-----------------------------------------------------------------------|
A|-----------------------------------------------------------------------|
E|-----------------------------------------------------------------------|


This solo is completely made up, I didn't really know how to do it but here is my 
effort. This solo is played during the Acoustic Bridge part. After this solo the electric 
guitar starts strumming the chorus along with the acoustic guitar.


ENJOY AND ROCK ON!
Tap to rate this tab
# A B C D E F G H I J K L M N O P Q R S T U V W X Y Z