Benoit Pioulard - Triggering Back chords

Highlighted       Show chord diagrams
Benoit Pioulard: Triggering Back             http://pioulard.com/
Capo 4

Intro (not relative to capo):

e|-------------------------------------|
B|-------------------------------------|
G|-------------------------------------|
D|--------------(16)------------(16)---|
A|------(11)------------(11)-----------|
E|--(16)----(16)----(16)----(16)-------|

Em   Am   Em   C  x2

Em                               Am                 Bm
Letting go the days we knew when others fell before you
C             Am
Half a statue carved in ochre
Em                 C                D   Bm D Am
Lest we forget our will is a broken one oh honey

Em              Am
Deep resonation signs our declension
Em              C
Some hesitation bears ready mention
Em                      Am                   D  Am
Turn off the station to multiply the tension darling

Em                             Am                Bm
I found a way to set aside the fact that I adore your
C               Am  
Laundry lists & long promenades
     Em                C
With haunting kisses & passing the days honeychild
 
                               :
e|-------------------------------------------------|
B|-------------------------------------------------|
D|-----------------------------7-------------------|
G|-2---5---9---7.-5----2---5-------7---9---0---5---|
A|---3---3-----------3---3---3---------------3---3-|
E|-----------8---8---------------8---8---8---------|
Oooo oooo oooo ooo

Em   Am   Em   C   Em   Am   Em   walking up  G   Am   C

Em                                 Am               Bm
Signed & sealed & in this sound we hear the memory dying
C               Am
Wondering if we paid attention
Em                     C                D   
Would we have seen our proper ascension day
Bm Am         D      Am     C
Oh there's no way-ay-ay
 
Bm-Am-C-Am-Em   C   F   C   F-Em   G-Em  G-Em
Oooo ooo ooos
Tap to rate this tab
 
# A B C D E F G H I J K L M N O P Q R S T U V W X Y Z