Song name
# A B C D E F G H I J K L M N O P Q R S T U V W X Y Z

Bens Brother - Stuttering tab

Ben's Brother - Stuttering

My first tab, chorus and solo taken from another tab.


Intro Verse
E|-------------------------------------------------------|
B|-------------------------------------------------------|
G|-------------------------------------------------------|
D|-----7--7--7--8-8-7-7-----7--7--7--8-8-7-7-------------|
A|---8--8--8--8-----------7--7--7--7---------------------|
E|-------------------------------------------------------|
--
E|-------------------------------------------------------|
B|-------------------------------------------------------|
G|-------------------------------------------------------|
D|----7---7---7---8-8-8-7-7-5----5--5-5--5---------------| 
A|-5---5---5---------------------------------------------|
E|-----------------------------8--8--8--8----------------|

Chorus
Chorus:
    F     A    Dmin  C/F 
E|--1-----0-----1-----0----|
B|--1-----2-----3-----1----|
G|--2-----2-----2-----3----|
D|--3-----2-----0-----2----|
A|--3-----0-----x-----3----|
E|--1-----0-----x-----0----|


Solo:
(pick fast & continuously)
E|------------------------------9-----13-----------------------------|
B|---6---------6---8---9---10------------------------8---------------|
G|-------------------------------------------------------------------|
D|-----------------------------------------------------------10------|
A|-------------------------------------------------------------------|
E|-------------------------------------------------------------------|
Tap to rate this tab
 
# A B C D E F G H I J K L M N O P Q R S T U V W X Y Z