Song name
# A B C D E F G H I J K L M N O P Q R S T U V W X Y Z

Bent Shapes - Panel Of Experts tab

Bent Shapes
http://bentshapes.tumblr.com/
http://bentshapes.bandcamp.com/

Panel of Experts

Intro Solo

E|-------------------------------------------|
B|--14/16\14-----------------------------14--|
G|------------13/15\13--13\11--11\13\15------|
D|-------------------------------------------|
A|-------------------------------------------|
E|-------------------------------------------|

Strums over singing

E|--2--
B|--2--
G|--3--
D|--4--
A|--4--
E|--2--


E|--2--0--2--2--|
B|--2--0--2--2--|
G|--3--1--4--3--|
D|--4--2--4--4--|
A|--4--2--2--4--|
E|--2--0-----2--|


Chorus

E|--------------------|
B|--------------------|
G|--------------------|
D|--11--10--9-----11--|
A|--9---8---7--9--9---|
E|-------------7------|


Strums over singing

E|--2--
B|--2--
G|--3--
D|--4--
A|--4--
E|--2--


E|--2--0--2--2--|
B|--2--0--2--2--|
G|--3--1--4--3--|
D|--4--2--4--4--|
A|--4--2--2--4--|
E|--2--0-----2--|

Chorus

E|--------------------|
B|--------------------|
G|--------------------|
D|--11--10--9-----11--|
A|--9---8---7--9--9---|
E|-------------7------|

Breakdown/Solo

E|------------------------------------6--9---9--6------------------------------------------------|
B|------------------------------------7--10--9--7------16--14------------------------------------|
G|--11--13/15--11/13\11--11\8/11--11---------------11----------15--13--13--15--13--15--13\11-11--|
D|--11----------------------------11---------------11--------------------------------------------|
A|--9-----------------------------9----------------9---------------------------------------------|
E|-----------------------------------------------------------------------------------------------|

E|--------------------------------------|
B|----------------------------------14--|
G|--11--13h15p13----------13h15p13------|
D|--11------------16--16----------------|
A|--9-----------------------------------|
E|--------------------------------------|

Chorus

E|--------------------|
B|--------------------|
G|--------------------|
D|--11--10--9-----11--|
A|--9---8---7--9--9---|
E|-------------7------|
Tap to rate this tab
# A B C D E F G H I J K L M N O P Q R S T U V W X Y Z