Song name
# A B C D E F G H I J K L M N O P Q R S T U V W X Y Z

Benton Falls - Tell Him tab

Benton Falls - Tell Him - Into Only


This is my first tab, I'm still doing the rest, but this is what 
i got so far. Comments, or if u got more tabs, email me at pedro_the_lion_@hotmail.com


Guitar 1

E-------------------------------------------------|
B------------2---------------4---2----------------|
G----------------3---4---1-----------1---3---4----|
D-------------------------------------------------|
A--------4----------------------------------------|
E----2--------------------------------------------|




Guitar 2

E-----------------------------|
B-----------------------------|
G-----------3h4---4p3---------|
D-------4---------------4-----|
A---2-------------------------|
E-----------------------------|
Tap to rate this tab
# A B C D E F G H I J K L M N O P Q R S T U V W X Y Z