Song name
# A B C D E F G H I J K L M N O P Q R S T U V W X Y Z

Benyamin Bahadori - Agham Imam Zaman tab

-------------------------------------------------------------------------------
		    AGHAM IMAM ZAMAN - Benyamin Bahadori
-------------------------------------------------------------------------------

Tabbed by: Shahab ($hab)
Email: rupertthepinkelephant@hotmail.com

Tuning: Standard (All 3 guitars)


Benyamin Bahadori is a very popular artist in Iran.
As requested, this is a tab, fully-transcribed by myself, of one of Benyamin's religious 
Agham Imam Zaman.

Official Benyamin Site: http://benyaminmusic.com/


INTRO (Guitars 1 and 2 these parts in harmony):


Guitar 1:


e--------2------0-------2-----------|--------------2-------3-2----2------------|
B------3----------3-2-----2---------|--------3---3--------------2---2----------|
G---4-------------------------------|--------4---------------------------------|
D---4-------------------------------|--------4---------------------------------|
A---2-------------------------------|--------2---------------------------------|
E-----------------------------------|------------------------------------------|


e------------3----3--2------2-------|----------------3--5--3--2----------------|
B---2----------2--------3-----------|--------3--2-0---0------------------------|
G---2---------------------4---------|--------4---------------------------------|
D---4-------------------------------|--------4---------------------------------|
A---4-------------------------------|--------4---------------------------------|
E-----------------------------------|------------------------------------------|


Guitar 2:


e--------------------------------------------------------|
B----------2---3----0--------------------2---------------|
G---4--4-----4---4------------------2------2-------------|
D---4----4----------------------4------------4-----------|
A---2-------------------------4---4----------------------|
E--------------------5--3--2-----------------------------|


e--------------------------------------------------------|
B----------2---3----0--------------------2---------------|
G------4-----4---4------------------2------2-------------|
D--------4-------------4--------4------------4-----------|
A---2-------------------------4---4----------------------|
E--------------------------2-----------------------------|


e--------------------------------------------------------|
B------------3---5---------------------------------------|
G---4----4-----4-----------------------------------------|
D---4--4---4---------------------------------------------|
A---2----------------------------------------------------|
E--------------------------------------------------------|


e--------------------------------------------------------|
B------------3---5---------------------------------------|
G---4----4-----4-----------------------------------------|
D---4--4---4---------------------------------------------|
A---2----------------------------------------------------|
E--------------------------------------------------------|

MAIN:


Guitar 1 - Rhythm (Repeat this chord sequence through the entire song):


    Bm  A  Bm     Bm  A  Gbm    A  A/Gb G     G   A  Bm
e---2---0---2-----2---0---2-----0---0---3-----3---0---2------------------------|
B---3---2---3-----3---2---2-----2---2---0-----0---2---3------------------------|
G---4---2---4-----4---2---2-----2---2---0-----0---2---4------------------------|
D---4---2---4-----4---2---4-----2---4---0-----0---2---4------------------------|
A---2-------2-----2-------4-------------2-----2-------2------------------------|
E-------------------------2-------------3-----3--------------------------------|

Guitar 2 - Lead (Play this twice during the intro, inbetween verses and after the chorus):


e---7-7-7h9--9p7--7\5-5\3-3\2-3/5-5/7-------7-7-7h9--9p7--7\5-5\3-3\2-2/3-3/5--|
B------------------------------------------------------------------------------|
G------------------------------------------------------------------------------|
D------------------------------------------------------------------------------|
A------------------------------------------------------------------------------|
E------------------------------------------------------------------------------|

                                             Fig.1 (Played the first time)
e---5-5-5h7--7p5--5\3-3\2-2p0-0h2-2/3------|-3-3-3/5-5/7-7/9--9-10p9-7-9-7h9p7--|
B------------------------------------------|------------------------------------|
G------------------------------------------|------------------------------------|
D------------------------------------------|------------------------------------|
A------------------------------------------|------------------------------------|
E------------------------------------------|------------------------------------|

Fig. 2 (Played the second time)
e---10#--12#--9#----15#--14#---------------|
B------------------------------------------|
G------------------------------------------|
D------------------------------------------|
A------------------------------------------|
E------------------------------------------|


Guitar 3 (Play this in harmony with Guitar 2 during the Fig. 2):

e---3#---5#---2#----9#---7#----------|
B------------------------------------|
G------------------------------------|
D------------------------------------|
A------------------------------------|
E------------------------------------|

VERSE:


Guitar 1 (Repeat the chord sequence):


    Bm  A  Bm     Bm  A  Gbm    A  A/Gb G     G   A  Bm
e---2---0---2-----2---0---2-----0---0---3-----3---0---2------------------------|
B---3---2---3-----3---2---2-----2---2---0-----0---2---3------------------------|
G---4---2---4-----4---2---2-----2---2---0-----0---2---4------------------------|
D---4---2---4-----4---2---4-----2---4---0-----0---2---4------------------------|
A---2-------2-----2-------4-------------2-----2-------2------------------------|
E-------------------------2-------------3-----3--------------------------------|


Guitar 2 (Slight alteration of the main riff, played inbetween lines during the verse):


e---------------------7-7-7h9--9p7--7\5-5\3-3\2-3/5-5/7------------------------|
B------------------------------------------------------------------------------|
G------------------------------------------------------------------------------|
D------------------------------------------------------------------------------|
A------------------------------------------------------------------------------|
E------------------------------------------------------------------------------|


e---------------------2-3-2-3-3/5----------------------------------------------|
B------------------------------------------------------------------------------|
G------------------------------------------------------------------------------|
D------------------------------------------------------------------------------|
A------------------------------------------------------------------------------|
E------------------------------------------------------------------------------|


e---------------------0-2-0-2-2/3----------------------------------------------|
B------------------------------------------------------------------------------|
G------------------------------------------------------------------------------|
D------------------------------------------------------------------------------|
A------------------------------------------------------------------------------|
E------------------------------------------------------------------------------|

e---------------------3#---5#---2#----9#---7#----------------------------------|
B------------------------------------------------------------------------------|
G------------------------------------------------------------------------------|
D------------------------------------------------------------------------------|
A------------------------------------------------------------------------------|
E------------------------------------------------------------------------------|

BREAK - 2:18 (Guitars 2 and 3 play these parts in harmony):


Guitar 2:


e---7-9-10---3-5-7---5-7-9---10-9-7-9-----------------------------------|
B-----------------------------------------------------------------------|
G-----------------------------------------------------------------------| x2
D-----------------------------------------------------------------------|
A-----------------------------------------------------------------------|
E-----------------------------------------------------------------------|


e--12#--10#--9#----10#--9#--7#------------------------------------------|
B-----------------------------------------------------------------------|
G-----------------------------------------------------------------------| x2
D-----------------------------------------------------------------------|
A-----------------------------------------------------------------------|
E-----------------------------------------------------------------------|

Guitar 3:


e-----------------------------------------------------------------------|
B-----------------------------------------------------------------------|
G-----------------------------------------------------------------------| x2
D---9-11-12---5-7-9---7-9-11---12-11-9-11-------------------------------|
A-----------------------------------------------------------------------|
E-----------------------------------------------------------------------|


e-----------------------------------------------------------------------|
B--5#--3#--2#----3#--2#-------------------------------------------------|
G------------------------4#---------------------------------------------| x2
D-----------------------------------------------------------------------|
A-----------------------------------------------------------------------|
E-----------------------------------------------------------------------|

For the remainder of the song, Guitar 1 repeats the chord sequence.

Guitar 3 doesn't play anything.

After the last chorus, Guitar 2 repeats the main riff without the alternative ending, 
the fade out:


e---7-7-7h9--9p7--7\5-5\3-3\2-3/5-5/7------7-7-7h9--9p7--7\5-5\3-3\2-2/3-3/5--|
B-----------------------------------------------------------------------------|
G-----------------------------------------------------------------------------|
D-----------------------------------------------------------------------------|
A-----------------------------------------------------------------------------|
E-----------------------------------------------------------------------------|


e--5-5-5h7--7p5--5\3-3\2-2p0-0h2-2/3-------3-3-3/5-5/7-7/9--9-10p9-7-9-7h9p7--|
B-----------------------------------------------------------------------------|
G-----------------------------------------------------------------------------|
D-----------------------------------------------------------------------------|
A-----------------------------------------------------------------------------|
E-----------------------------------------------------------------------------|

...And that's the entire song, fully tabbed, completely accurate.
  - Shahab


| #  Pluck note repeatedly and fast (listen to song for timing)
| /  slide up
| \  slide down
| h  hammer-on
| p  pull-off
| ~  vibrato
| +  harmonic
| x  Mute note
===============================================================================
Tap to rate this tab
 
# A B C D E F G H I J K L M N O P Q R S T U V W X Y Z