Guitaretab - guitar tabs
Song name
# A B C D E F G H I J K L M N O P Q R S T U V W X Y Z

Beowulf - Gently As She Goes tab

This is one of the songs the queen plays on the harpsichord in the great hall.

-::Gently As She Goes by Robin Wright-Penn (soundtrack Beowulf)::-

[ Tab from: http://www.guitaretab.com/b/beowulf/98959.html ]
E:--0---------0-2-3-2-0--------------------------|
B:----------3-----------3-----2----0----2----0---|
G:-------------------------------2---------2-----|
D:--2-------0------------------------------------|
A:----------------3-----2-----0---------0----2---|
E:---------------------------------0-------------|

E:--0---------0-2-3-2-0--------------------------|
B:----------3-----------3-----3--0-2----0--------|
G:------------------------------------2----------|
D:--2-------0--------------------------------0---|
A:----------------3-----2----------0----2--------|
E:----------------------------3------------------| (repeat)

Hope this works for you all! :]
Related for Gently As She Goes tab
Advertisement will be closed in 10 seconds