Guitaretab - guitar tabs
Song name
# A B C D E F G H I J K L M N O P Q R S T U V W X Y Z

Beranek - Dra Til Helvete tab

-------------------------------------------------------------------------------
			     Dra til Helvete - Beranek
-------------------------------------------------------------------------------
Tabbed by: Nisko
Email: Niskoask@hotmail.com

Tuning: Standard

h = Hammer-on
br = Bend/release (2 frets up..)
~ = vibrato

[Intro]
e|-----------------------------------------|
B|-----------------------------------------|
G|----------7--7--7----x---------7--7--7---|
D|--5--x----7--7--7----x---7--x--7--7--7---| Play 2 times
A|--5--x----5--5--5----x---7--x--5--5--5---|
E|--3--x-------------------5--x------------|

e|--------------------------------|
B|--------------------------------|
G|--------------------------------|
D|----7-7-7-7-7-7-7-7-7-7-7-7-7---| 
A|----7-7-7-7-7-7-7-7-7-7-7-7-7---|
E|----5-5-5-5-5-5-5-5-5-5-5-5-5---|

[Riff]
e|--------------------------------------------|
B|--------------------------------------------|
G|------5--5-5-5h7-7-7----7---7----7----7-----|
D|--------------------------------------------| play 4 times
A|--------------------------------------------|
E|--------------------------------------------|
Listen to the song and you'll get the idea with the last part...

[Verse]

e|----------------------------------------|
B|----------------------------------------|
G|----------7--7--7----x---------7--7--7--|
D|--5--x----7--7--7----x---7--x--7--7--7--|Play throughout the whole verse
A|--5--x----5--5--5----x---7--x--5--5--5--|
E|--3--x-------------------5--x-----------|
"Jeg dro ned til byn for  f meg et kick"

[Chorus]

" dra te helvete"

e|-----------------------------------------------|
B|-----------------------------------------------|
G|------5--5-5-5h7-7-7----7---7----7----7--------|
D|-----------------------------------------------|Play throughout the Chorus
A|-----------------------------------------------|
E|-----------------------------------------------|

[Solo]
[ Tab from: http://www.guitaretab.com/b/beranek/156429.html ]
e|------15--15--15br-14----------------------------------------------------|
B|--15-------------------15--15--15--15b-15b-15--17b~----------------------|
G|-------------------------------------------------------------------------|
D|-------------------------------------------------------------------------|
A|-------------------------------------------------------------------------|
E|-------------------------------------------------------------------------|


e|------15--15--15br-14----------------------------------------------------|
B|--15-------------------15--15--15--15b-15b-15--15~-----------------------|
G|-------------------------------------------------------------------------|
D|-------------------------------------------------------------------------|
A|-------------------------------------------------------------------------|
E|-------------------------------------------------------------------------|


e|------15--15--15br-14----------------------------------------------------|
B|--15-------------------15--15--15--15b-15b-15--17b~-------15-17-17b-17~--|
G|-------------------------------------------------------------------------|
D|-------------------------------------------------------------------------|
A|-------------------------------------------------------------------------|
E|-------------------------------------------------------------------------|

[Riff 2]
e|--------------------------------------------|
B|--------------8--6-5------------------------|
G|------5--5-5---------5--5--5-5h7------------|
D|--------------------------------------------|
A|--------------------------------------------|
E|--------------------------------------------|

e|--------------------------------------------|
B|--------------------------------------------|
G|------5--5-5-5h7-7-7----7---7----7----7-----|
D|--------------------------------------------|
A|--------------------------------------------|
E|--------------------------------------------|


Order : 
Intro
Riff
Verse
Chorus
Verse
Chorus
Solo
Riff
Riff 2
Riff 1 time
Verse
Chorus until the song's finished

That's it, you know the song! it's easy for beginners (except the solo) but with an
electric guitar it will go easy, it's not fast.