Song name
# A B C D E F G H I J K L M N O P Q R S T U V W X Y Z

Bernard Butler - Not Alone tab

Bernard Butler - Not Alone

tabbed by Avi Yaacov
Israel, August 5, 2013


This dude's a really great guitar player with a very unique style. Enjoy!



Intro Solo:

e|--------------------------------------------------|
B|--------------------------------------------------|
G|--5-5-5-7-4---4-5-7--7-7^-5-----5----5-7b8r7p5----|
D|------------------------------7---7------------5--|  
A|--------------------------------------------------| 
E|--------------------------------------------------|

e|-----------------------------------------------------------| 
B|-----------------------------------------------------------| 
G|------5----5-5-5-7-4---4-5-7--7-7^-5-----5----5-7b8r7p5----|
D|--5-7----------------------------------7---7------------5--|  
A|-----------------------------------------------------------| 
E|-----------------------------------------------------------| 


e|---------------------------------------|-this part twice--|-----------------|
B|--------------------------17-----------|--17-17-----------|--17-18-17-------|
G|--------17-----17----17------19p17-----|--------19-17-----|-----------17vv--|
D|--17-19-----19----19---------------19--|--------------19--|-----------------|
A|---------------------------------------|------------------|-----------------|
E|---------------------------------------|------------------|-----------------|


Verse Chords:           C / Em / F / C - G

Chorus Chords:          C / Em / F / G


Another riff he uses before the chorus, at 0:57:
e|-------------------------------------------|------------------------------------|
B|-----------------------17------------------|-----------------------17-----------|
G|--------17----17----17----19p17------------|--------17----17----17----19p17-----|
D|--17-19----19----19-------------17vv-------|--17-19----19----19-------------17--|
A|-------------------------------------19vv--|------------------------------------|
E|-------------------------------------------|------------------------------------|

e|---------------------------------------|-this part twice--|
B|--------------------------17-----------|--17-17-----------|
G|--------17-----17----17------19p17-----|--------19-17-----|
D|--17-19-----19----19---------------19--|--------------19--|
A|---------------------------------------|------------------|
E|---------------------------------------|------------------|




During the chorus he also uses fills from the intro solo, use at will.
Nice fill at 1:40
e|---17v--15v-------15v--------|   
B|-------------17v-------------|
G|-----------------------17vv--|
D|-----------------------------|   
A|-----------------------------|
E|-----------------------------|




Solo @ 2:35

e|---------------------------------------|
B|-----------------------17--------------|
G|--------17----17----17----19p17--------|
D|--17-19----19----19-------------17-----|
A|-----------------------------------19/-|
E|---------------------------------------|


e|---------------------------------------------|
B|-----------------------17--------------------|
G|--------17----17----17----19p17--19b-&hold---|
D|--17-19----19----19--------------------------|
A|---------------------------------------------|
E|---------------------------------------------|

e|--------------------------------------------------------------------|
B|-----------------------17-------------------------------------------|
G|--------17----17----17----19p17--------------17vv-------------17vv--|
D|--17-19----19----19-------------17----------------------------------|
A|-----------------------------------19p18-19-------18-19p18-17-------|
E|--------------------------------------------------------------------|

e|---------------------------------------------------------------------------|
B|-------------------------------------------------------17-18-17---20^hold--|
G|--------------------------------17-------17-19---17-19---------------------|
D|--------------------17----17-19-------19-----------------------------------|
A|--19-18-19-18-17-------19--------------------------------------------------|
E|---------------------------------------------------------------------------|



Outro Solo:

      ~~~~~ repeat this part as needed ~~~~~
e|------------------------------------|-mess--|-----------------|
B|--20b21r20-------------20b21r20-----|--with-|-----------------|
G|-----------17-------17----------17--|--19---|----------17-17--|
D|-----------------19-----------------|-------|----17h19--------|
A|------------------------------------|-------|-----------------|
E|------------------------------------|-------|-----------------|
Tap to rate this tab
# A B C D E F G H I J K L M N O P Q R S T U V W X Y Z