Song name
# A B C D E F G H I J K L M N O P Q R S T U V W X Y Z

Bernard Butler - Stay tab

Bernard Butler - Stay


Tab by Avi Yaacov
Israel, September 5, 2013



Intro / Verse:

e|---0-----0-----0-----0-----|-------------|
B|---5-----5-----5-----1-----|--1-1-1p0----|
G|---6-----6-----6-----2-----|----------2--|
D|---7-----6-----4-----3-----|-------------|
A|---0-----0-----0-----0-----|-------------|
E|---------------------------|-------------|


Fill @ 1:45

e|-----------------------------|
B|------5-6--------------------|
G|--4/6-----5bvv------5-5p4----|
D|--------------------------7--|
A|-----------------------------|
E|-----------------------------|



Chorus chords:
(credit - Marc Mcconnell from Stirling)

A / G / D / F




Fill @ 2:40

e|--0---------------------------------------------------------|
B|--5---------------------------------------17----------------|
G|--6--6b7r6----------------------------17^----16b17r16-14vv--|
D|--7--------6vv----------------------------------------------|
A|--0----------------7-9-9/12vv-------------------------------|
E|------------------------------------------------------------|



Fill around 3:50

e|---------------------------------------|
B|---------------------------------15vv--|
G|--14-14---14----14-17---14----14-------|
D|-------------17------------17----------|
A|---------------------------------------|
E|---------------------------------------|



And from 4:05 onwards:

e|---------------------|--17-15-17^^^vvv--17^^vv---17p15----17v--|
B|--15-17-15-17-15-17--|---------------------------------17------|
G|---------------------|-----------------------------------------|
D|---------------------|-----------------------------------------|
A|---------------------|-----------------------------------------|
E|---------------------|-----------------------------------------|


e|--15-17----|------------------------------------------|
B|-----------|--------------------------------------15--|
G|--repeat---|--17b18r18-14--------14-17---14----14-----|
D|-----------|---------------14-17------------17--------|
A|-----------|------------------------------------------|
E|-----------|------------------------------------------|

e|--------------------------------------|
B|--------------15p13----13-15^-15^^vv--|
G|-----14-17-14-------14----------------|
D|--17----------------------------------|
A|--------------------------------------|
E|--------------------------------------|

e|----------------------15-17--20^^^vvv---|
B|--15------------------------------------|
G|-----17-17-14-17------------------------|
D|----------------------------------------|
A|----------------------------------------|
E|----------------------------------------|



So should you like to mess around with riffs and fills on this song I suggest you’d play around:

e|--------------------15-17--|
B|--------------15-17--------|
G|--------14-17--------------|
D|--14-17--------------------|
A|---------------------------|
E|---------------------------|
Tap to rate this tab
# A B C D E F G H I J K L M N O P Q R S T U V W X Y Z