Song name
# A B C D E F G H I J K L M N O P Q R S T U V W X Y Z

Bernard Cribbins - Right Said Fred tab

-------------------------------------------------------------------------------
			     right said fred - bernard cribbins
-------------------------------------------------------------------------------
Tabbed by: justinjamesuk
Email:

Tuning:

e|---------------------------------------------------------------------------|
B|---------------------------------------------------------------------------|
G|-----1----2------2-2-------2-----2-----------------------------------------|
D|-2-4--------2--4-----2--4-----------2--4-------2---------------------------|
A|-----------------------------------------2--4----4--2----------------------|
E|---------------------------------------------------------------------------|

e|---------------------------------------------------------------------------|
B|-------------------------------------2-2---2---3-2--------2----------------|
G|----------------------------------2------4----4-----4-2-4------4--2--------|
D|----2-------------2---------2--4-------------------------------------------|
A|-4-----4--2--4--4---4--2--4------------------------------------------------|
E|---------------------------------------------------------------------------|

e|---------------------------------------------------------------------------|
B|----2--2-------------------------------------------------------------------|
G|-4--------2--4--2------------REPEAT--MOVING UP FRET BOARD------------------|
D|---------------------------------------------------------------------------|
A|---------------------------------------------------------------------------|
E|---------------------------------------------------------------------------|


(A) Right said (D7)Fred (A)both of us to(D7)gether 
(A)one each (D7)end and (A)steady as we (E)go 
(A)tried to (D7)shift it (A)couldn't even (D7)lift it 
(A)we was (D7)getting (A)nowhere(A7) and 

(D )so (B7)we (E)had a cuppa tea and 
(A)Charlie had a think and he (D)thought we ought to 
(A 7)take off all the (D)handles and the 
(B7)things wot held the (E)candles  but it (B7)did no good well I (E7)never thought it would

All(A)right said (D7)Fred (A)have to take the (D7)feet off 
to (A) get them (D7)feet off (A)wouldn't take a (E)mo 
(A)took its (D7)feet off (A)even took the (D7)seat off 
(A)should have (D7)got us (A)somewhere(A7) but (F#7)no 
so (Bm)Fred said (E7)let's have a(A)nother (E)cuppa (F#m)tea 
(D)and (Bm7)we said (E7)right (A)ho 

my tabbing and chords finally found on the world wide wonderment.
good luck.. original songs and vids on youtube channel. justinjamesuk
Tap to rate this tab
# A B C D E F G H I J K L M N O P Q R S T U V W X Y Z