Guitaretab - guitar tabs
Song name
# A B C D E F G H I J K L M N O P Q R S T U V W X Y Z

Bernard Fanning - Yesterdays Gone tab

Song:Yesterdays Gone
Artist: Ryan Cabrera
Tuning: Standard

Intro/verse:
e|--0---0---2---3---0--|
b|--3---2---3---3---2--|
G|--2---2---4---0---2--|
D|--0---2---4---0---2--|
A|--0---0---2---2---0--|
E|--x---x---x---3---x--|
[ Tab from: http://www.guitaretab.com/b/bernard-fanning/141800.html ]
Pre Chorus:
e|--3----3----3----0----3----3----3----0--|
b|--3----3----3----3----3----3----3----3--|
G|--0----2----0----2----0----2----0----2--|
D|--0----0----2----0----2----0----2----2--|
A|--2----0----2----0----2----0----2----0--|
E|--3----2----0----x----0----2----0----x--|

Chorus:
e|--0----2----3----0--|
b|--3----3----3----3--|
G|--2----4----0----2--|
D|--0----4----0----2--|
A|--0----2----2----0--|
E|--x----x----3----x--|

Bridge:
e|--3----2----0--|
b|--3----3----2--|
G|--0----4----2--|
D|--0----4----2--|
A|--2----2----0--|
E|--3----x----x--|

NOTE: Bridge goes back and forth...

any Q's IM at guitars000
Related for Yesterdays Gone tab