Song name
# A B C D E F G H I J K L M N O P Q R S T U V W X Y Z

Bernard Fanning - Grow Around You tab

This is Bernard's acoustic version of Grow Around You

Tabbed by: Hamish
Tuning: DADF#AD

Verse Chords:

(Listen to strumming pattern: http://www.youtube.com/watch?v=PhnCB8ewarY)

d |------|-----|--0--|--0--| 
A |---0--|-----|--0--|--0--|
F#|---3--|--2--|--0--|--0--|
D |---2--|--0--|--0--|--0--|
A |------|-----|--4--|--5--|
D |------|-----|-----|-----|

Chorus:

d |--0--|--2--|--2--|-----|--2--|--0--|
A |--0--|--2--|--2--|-----|--2--|--0--|
F#|--7--|--2--|--3--|--4--|--3--|--0--|
D |--7--|--2--|--2--|--4--|--2--|--4--|
A |--0--|--2--|--4--|--4--|--4--|--5--|
D |-----|--2--|-----|--4--|-----|-----|

Bridge:

d |--2--|--2--|--2--|--2--|--2--|-----|       |-----|
A |--2--|--2--|--2--|--2--|--2--|-----|       |-----|
F#|--2--|--3--|--2--|--3--|--2--|-----|       |-----|
D |--2--|--2--|--2--|--2--|--2--|--4--| then: |--9--|
A |--2--|--4--|--2--|--4--|--2--|--4--|       |--9--|
D |--2--|--2--|--2--|--2--|--2--|--4--|       |--9--|

Structure of Song:
Verse  x 4
Chorus x 2
Verse  x 4
Chorus x 2
Bridge x 2
Chorus x 6
Verse  x 1

Finish on:

d |-----|
A |--0--|
F#|--3--|
D |--2--|
A |-----|
D |-----|

Lyrics:

Verse:

Shut out the light pull down the shade
Rest your bones by the fire
Watch it burn through your pain
Let it warm your desire 

We'll take our time to soothe the scars
Let them serve to remind us
That troubles always leave their marks
Soon enough they'll be behind us 

Chorus: 

I will throw 
I will throw my love
Around you
Let it grow
Let it grow my love
Around you 

Bridge:

I will chase away the things that make you weep
If you promise to come back to me complete

Please comment any suggestions/improvements/corrections.

Hope it helps
Tap to rate this tab
# A B C D E F G H I J K L M N O P Q R S T U V W X Y Z