Song name
# A B C D E F G H I J K L M N O P Q R S T U V W X Y Z

Bernard Fanning - Dying Day tab

www.ultimate guitar archive.com
song:dying day
band:blitzkid tabbed by spencer weatherbe lindsey-spencer@hotmail.com

I am not tabbing the rythem just putting the chords in place
:intro:play 4 time

E------------------------------------------------------------------------|
B------------------------------------------------------------------------|
G------------------------------------------------------------------play--| 4X
D-7-7-7-7-7-7--9-9-11-11-9-9-9-9-9-6-6-6-6-7-7-7-7-9-9-9-9-7-7-7-7-------|
A-5-5-5-5-5-5--7-7--9--9-7-7-7-7-7-4-4-4-4-5-5-5-5-7-7-7-7-5-5-5-5-------|
E------------------------------------------------------------------------|
verse 1 play 2 times
E------------------------------------------------------|
B------------------------------------------------------|
G------------------------------------------------------|
D-7-7-7-7-7-7------------------------------------------|
A-5-5-5-5-5-5--7-7-7-7-7-7---5-5-5-5-5-5--7-7-7-7-7-7--|
E--------------5-5-5-5-5-5---3-3-3-3-3-3--5-5-5-5-5-5--|
 :-----------::-----------: :-----------: :------------|
   palm mute    palm mute    palm mute      palm mute
:chorus: {repeat verse 1 to chorus}
E----------------------------------------------------|
B----------------------------------------------------|
G----------------------------------------------------|
D-7-7-7-7-7-7----------------------------------------|
A-5-5-5-5-5-5-7-7-7-7-7-7--5-5-5-5-5-5--7-7-7-7-7-7--|
E-------------5-5-5-5-5-5--3-3-3-3-3-3--5-5-5-5-5-5--|

END: {REPEAT INTRO}
Tap to rate this tab
 
# A B C D E F G H I J K L M N O P Q R S T U V W X Y Z