Song name
# A B C D E F G H I J K L M N O P Q R S T U V W X Y Z

Bernhoft - Choices tab

Bernhoft - Choices

Chords at chorus: Em-A7-C-D

Intro
E]-------------------------------------------------------------------------|
B]-------------------------------------------------------------------------|
G]-----------------------------------------------------------2--2--2--2--2-|
D]--7--7--7--7--7--7--7--7--5--5--5--4--4--4--4--4--2--2--2--3--3--3--3--3-|
A]--6--6--6--6--6--6--6--6--7--7--7--5--5--5--5--5--3--3--3----------------|
E]--x--x--x--x--x--x--x--x--x--x--x--x--x--x--x--x--x--x--x----------------|


E]-------------------------------------|
B]-------------------------------------|
G]-------------------------------------|
D]--5--5--5--4--4--4--4--4--7--7--7--7-|
A]--7--7--7--5--5--5--5--5--6--6--6--6-|
E]--x--x--x--x--x--x--x--x--x--x--x--x-|

Tap to rate this tab
# A B C D E F G H I J K L M N O P Q R S T U V W X Y Z