Song name
# A B C D E F G H I J K L M N O P Q R S T U V W X Y Z

Bernhoft - Cmon Talk tab

Capo 7th, 2/4

Listen to the song for the rhythm. I simplified it, but it's the main idea. I was 
surprised this wasn't on here yet, so it's better than nothing.

||----------3-0---|-------------|-------------|-------------|
||-T--0/1-1-----0-|-3-1-0-------|-------1-----|-------0-----|
||-A--------------|-------2-0---|-----0---0---|-----0---0---|
||-B--------------|-----------0-|-0/2---------|-0/2---------|
||----------------|-------------|-------------|-------------|
||----------------|-------------|-------------|-------------|

||----------3-0---|-------------|-------------|-------------|
||----0/1-1-----0-|-3-1-0-------|-------1-1---|---------0---|
||----------------|-------2-0---|-----0------0|-----0-------|
||----------------|-----------0-|-0/2---------|-0/2---2-----|
||----------------|-------------|-------------|-------------|
||----------------|-------------|-------------|-------------|   And repeat.
Tap to rate this tab
 
# A B C D E F G H I J K L M N O P Q R S T U V W X Y Z