Song name
# A B C D E F G H I J K L M N O P Q R S T U V W X Y Z

Berri Txarrak - Maravillas tab

MARAVILLAS

By : Andres ( of Dex-karga )
Afinazioa : D A D G B E


INTRO      

|--------------------------------------------------------------------|}
|--------------------------------------------------------------------|}
|--------------------------------------------------------------------|}
|-----------------------7---5----------------------------------------|}
|3-2------3-2----3-2----5---3----------------------------------------|}
|2-2------2-2----2-2-------------------------------------------------|}

|--------------------------------------------------------------------|}
|--------------------------------------------------------------------|}
|--------------------------------------------------------------------|}
|-----------------------7---5----------------------------------------|}
|3-2------3-2----3-2----5---3----------------------------------------|}
|2-2------2-2----2-2-------------------------------------------------|}

VERSE          

|--------------------------------------------------------------------|}
|--------------------------------------------------------------------|}
|-------------------------------------7------------------------------|}
|-----------------------3---5---5-/-7----5---------------------------|}
|3-2------3-2----3-2----5---3------------3--------------------------|}
|2-2------2-2----2-2-------------------------------------------------|}
              
|--------------------------------------------------------------------|}
|--------------------------------------------------------------------|}
|-------------------------------------7------------------------------|}
|-----------------------3---5---5-/-7----5---------------------------|}
|3-2------3-2----3-2----5---3------------3--------------------------|}
|2-2------2-2----2-2-------------------------------------------------|}

|--------------------------------------------------------------------|}
|--------------------------------------------------------------------|}
|-----------------------7-7-777-9-999-11-11-14-141414----------------|}
|--------------------------------------------------------------------|}
|3-2------3-2----3-2----5-5-555-7-777--9-999-12-121212---------------|}
|2-2------2-2----2-2-------------------------------------------------|}

PRE-CHORUS
              
|--------------------------------------------------------------------|}
|--------------------------------------------------------------------|}
|-----------------------7-7-777-9-999-11-11-1111111111---------------|}
|--------------------------------------------------------------------|}
|3-2------3-2----3-2----5-5-555-7-777--9-999-9-999999----------------|}
|2-2------2-2----2-2-------------------------------------------------|}

CHORUS
              
|--------------------------------------------------------------------|}
|--------------------------------------------------------------------|}
|--------------------------------------------------------------------|}
|555555550000000077777777101010101010--------------------------------|}
|555555550000000077777777101010101010--------------------------------|}
|555555550000000077777777101010101010--------------------------------|}

|--------------------------------------------------------------------|}
|--------------------------------------------------------------------|}
|--------------------------------------------------------------------|}
|555555550000000077777777101010101010--------------------------------|}
|555555550000000077777777101010101010--------------------------------|}
|555555550000000077777777101010101010--------------------------------|}

|--------------------------------------------------------------------|}
|--------------------------------------------------------------------|}
|--------------------------------------------------------------------|}
|2-------------------------------------------------------------------|}
|2-------------------------------------------------------------------|}
|2----------/14------------------------------------------------------|}
Tap to rate this tab
 
# A B C D E F G H I J K L M N O P Q R S T U V W X Y Z