Song name
# A B C D E F G H I J K L M N O P Q R S T U V W X Y Z

Berri Txarrak - Oreka tab

OREKA

By : Andres ( of Dex-karga )
Afinazioa : D A D G B E

INTRO

|------------------------------------------------------------------------|
|------------------------------------------------------------------------|
|------------------------------------------------------------------------|
|xx-8---xx-8-x8---xx-10--xx-8x7------------------------------------------|
|xx-10--xx-10x10--xx-8---xx-6x6------------------------------------------|
|------------------------------------------------------------------------|

VERSE

|--------6------------------------------------------------------------|
|--------6-------------------6----------------------------------------|
|--------8-----------------8---8---8----------------------------------|
|5-------8-------5-------8-------8------------------------------------|
|5-------6-------5----------------------------------------------------|
|5---------------5----------------------------------------------------|

CHORUS

|---------------------------------------------------------------------|
|---------------------------------------------------------------------|
|---------------------------------------------------------------------|
|55555555888888880000000033333333-------------------------------------|
|55555555888888880000000033333333-------------------------------------|
|55555555888888880000000033333333-------------------------------------|

|---------------------------------------------------------------------|
|---------------------------------------------------------------------|
|----------------------------8888/7-----------------------------------|
|555555558888888800000000333-XXXX-X-----------------------------------|
|555555558888888800000000333-6666/5-----------------------------------|
|555555558888888800000000333------------------------------------------|

INTERLUDE

|--------------------------------------------------------------------|
|--8---10----------9----8--------------------------------------------|
|7---7----7----7-7---7----7------------------------------------------|
|--------------------------------------------------------------------|
|--------------------------------------------------------------------|
|--------------------------------------------------------------------|
Tap to rate this tab
 
# A B C D E F G H I J K L M N O P Q R S T U V W X Y Z