Berri Txarrak - Isiltzen Banaiz tab

ISILTZEN BANAIZ

By : Andres ( of Dex-karga )
Afinazioa : D A D G B E

INTRO      

|---------------------------------------------------------------------|
|---------11-10-------------------------------------------------------|
|---------------------------------------------------------------------|
|------12-------10101010-1313-12--------------------------------------|
|10-10----------------------------------------------------------------|
|---------------------------------------------------------------------|

|---------------------------------------------------------------------|
|---------------------------------------------------------------------|
|----------55-8-7-----------------------------------------------------|
|5--888888-55-8-7-----------------------------------------------------|
|5---------33-6-5-----------------------------------------------------|
|5--------------------------------------------------------------------|

VERSE

|---------------------------------------------------------------------|
|------------------------11-10----------------------------------------|
|---------------------------------------------------------------------|
|8------7-------------12-------10101010-1313-12-----------------------|
|8------7-------10-10-------------------------------------------------|
|8------7-------------------------------------------------------------|

...

TA ETZEKIT GEYO
...
Tap to rate this tab
 
# A B C D E F G H I J K L M N O P Q R S T U V W X Y Z