Song name
# A B C D E F G H I J K L M N O P Q R S T U V W X Y Z

Berri Txarrak - Jainko Ateoa tab

JAINKO ATEOA

By : Andres ( of Dex-karga )
Afinazioa : D A D G B E
   
|--------------------------------------------------------------------|
|--------------------------------------------------------------------|
|--------------------------------------------------------------------|
|3-3--------------6-7-6---3-3------1---10/6--8/5---------------------|
|3-3------6---6-8---------3-3------1---x--x--x-x---------------------|
|3-36-8------------------3-3--6-8-1---10/6--8/5---------------------|

|--------------------------------------------------------------------|
|--------------------------------------------------------------------|
|--------------------------------------------------------------------|
|3-3--------------6-7-6---3-3-x-x-x-3-3------------------------------|
|3-3------6---6-8---------3-3-x-x-x-3-3------------------------------|
|3-36-8------------------3-3-x-x-x-3-3--15/-------------------------|

|--------------------------------------------------------------------|
|--------------------------------------------------------------------|
|--------------------------------------------------------------------|
|3-3--------------6-7-6---3-3------1---10/6--8/5---------------------|
|3-3------6---6-8---------3-3------1---x--x--x-x---------------------|
|3-36-8------------------3-3--6-8-1---10/6--8/5---------------------|

|--------------------------------------------------------------------|
|--------------------------------------------------------------------|
|-----------------------------10/8-------8/5-------------------------|
|3-3--------------6-7-6---3-3--x-x--3-3--x-x--3----------------------|
|3-3------6---6-8---------3-3--8/6--3-3--6/3--3----------------------|
|3-36-8------------------3-3-------3-3-------3----------------------|
Tap to rate this tab
 
# A B C D E F G H I J K L M N O P Q R S T U V W X Y Z