Song name
# A B C D E F G H I J K L M N O P Q R S T U V W X Y Z

Berri Txarrak - Ikusi Arte tab

Berri txarrak is a rock band from the basque country. They have 4 disk and they are one
of the biggest bands in the basque country actually. In their last album they have a song
feat tim mc ilrath, the rise againstīs singer. 

They have a web site: www.berritxarrak.net


-------------------------------------------------------------------------------
			         IKUSI ARTE
-------------------------------------------------------------------------------

Band name: berri txarrak

Tabbed by: Alex Etxeberria

Email: alex_etxebe@hotmail.com


Play this 1 time

|--------------|
|--------------|
|--------------|
|--------------|
|--------------|
|--x--x--x--x--|


Play this 4 times

|-------------------------------------------------------------------------------------|
|-------------------------------------------------------------------------------------|
|-------------------------------------------------------------------------------------|
|--4---4-4--4-4--4-4---7---7-7--7-7--7-7---11--11-11-11-11--11-11-11--11-11-11-11-11--|
|--4---4-4--4-4--4-4---7---7-7--7-7--7-7----9---9--9--9--9---9--9--9---9--9--9--9--9--|
|--2---2-2--2-2--2-2---5---5-5--5-5--5-5----9---9--9--9--9---9--9--9---9--9--9--9--9--|


Play this 2 times

|-------------------------------------------------------------------------------------|
|-------------------------------------------------------------------------------------|
|-------------------------------------------------------------------------------------|
|-------------------------------------------------------------------------------------|
|-------------------------------------------------------------------------------------|
|--2---2-2--2-2--2-2---5---5-5--5-5--5-5----9---9--9--9--9---9--9--9---9--9--9--9--9--|


Play this 4 times

|-------------------------------------------------------------------------------------|
|-------------------------------------------------------------------------------------|
|-------------------------------------------------------------------------------------|
|--4---4-4--4-4--4-4---7---7-7--7-7--7-7---11--11-11-11-11--11-11-11--11-11-11-11-11--|
|--4---4-4--4-4--4-4---7---7-7--7-7--7-7----9---9--9--9--9---9--9--9---9--9--9--9--9--|
|--2---2-2--2-2--2-2---5---5-5--5-5--5-5----9---9--9--9--9---9--9--9---9--9--9--9--9--|


Play this 3 times

|-------------------------------------|
|-------------------------------------|
|-------------------------------------|
|--4--4--4--4-------------------------|
|--4--4--4--4-------------------------|
|--2--2--2--2--10-10-10--9-9-9--7-7---|


Play this 1 time

|--------------------------------------|
|--------------------------------------|
|--------------------------------------|
|--4--4--4--4--------------------------|
|--4--4--4--4--------------------------|
|--2--2--2--2--10-10-10--9-9-9--7-7--2-|


Play this 4 times

|-------------------------------------------------------------------------------------|
|-------------------------------------------------------------------------------------|
|-------------------------------------------------------------------------------------|
|--4---4-4--4-4--4-4---7---7-7--7-7--7-7---11--11-11-11-11--11-11-11--11-11-11-11-11--|
|--4---4-4--4-4--4-4---7---7-7--7-7--7-7----9---9--9--9--9---9--9--9---9--9--9--9--9--|
|--2---2-2--2-2--2-2---5---5-5--5-5--5-5----9---9--9--9--9---9--9--9---9--9--9--9--9--|


Play this 4 times

|-------------------------------------------------------------------------------------|
|-------------------------------------------------------------------------------------|
|-------------------------------------------------------------------------------------|
|--7---7-7--7-7--7-7---9---9-9--9-9--9-9---11--11-11-11-11--11-11-11--11-11-11-11-11--|
|--7---7-7--7-7--7-7---9---9-9--9-9--9-9----9---9--9--9--9---9--9--9---9--9--9--9--9--|
|--5---5-5--5-5--5-5---7---7-7--7-7--7-7----9---9--9--9--9---9--9--9---9--9--9--9--9--|


Play this 15 times

|---------|
|---------|
|---------|
|--4-4-4--|
|--4-4-4--|
|--2-2-2--|


Play this 1 time

|-------------------------|
|-------------------------|
|-------------------------|
|--4-4-4------------------|
|--4-4-4------------------|
|--2-2-2--2----------2----|


Play this 4 times

|-------------------------------------------------------------------------------------|
|-------------------------------------------------------------------------------------|
|-------------------------------------------------------------------------------------|
|--4---4-4--4-4--4-4---7---7-7--7-7--7-7--11--11-11-11-11--11-11-11--11-11-11-11-11---|
|--4---4-4--4-4--4-4---7---7-7--7-7--7-7---9---9--9--9--9---9--9--9---9--9--9--9--9---|
|--2---2-2--2-2--2-2---5---5-5--5-5--5-5---9---9--9--9--9---9--9--9---9--9--9--9--9---|


Play this 4 times

|-------------------------------------------------------------------------------------|
|-------------------------------------------------------------------------------------|
|-------------------------------------------------------------------------------------|
|--7---7-7--7-7--7-7---9---9-9--9-9--9-9--11--11-11-11-11--11-11-11--11-11-11-11-11---|
|--7---7-7--7-7--7-7---9---9-9--9-9--9-9---9---9--9--9--9---9--9--9---9--9--9--9--9---|
|--5---5-5--5-5--5-5---7---7-7--7-7--7-7---9---9--9--9--9---9--9--9---9--9--9--9--9---|


Play this 1 time

|--------------------------------------------------------------------|
|--------------------------------------------------------------------|
|--------------------------------------------------------------------|
|--4---4-4--4-4--4-4---7---7-7--7-7--7-7---11--11-11-11-11-11-11-----|
|--4---4-4--4-4--4-4---7---7-7--7-7--7-7----9---9--9--9--9--9--9-----|
|--2---2-2--2-2--2-2---5---5-5--5-5--5-5----9---9--9--9--9--9--9-----|


Play this 1 time

|-----------------------------------------------------------------------------|
|-----------------------------------------------------------------------------|
|-----------------------------------------------------------------------------|
|--2---5-5--4---4-4--4-4--4-4---7---7-7--7-7--7-7---11--11-11-11-11-11-11-----|
|--2---5-5--4---4-4--4-4--4-4---7---7-7--7-7--7-7----9---9--9--9--9--9--9-----|
|--0---3-3--2---2-2--2-2--2-2---5---5-5--5-5--5-5----9---9--9--9--9--9--9-----|


Play this 4 times

|-----------------------------|
|-----------------------------|
|-----------------------------|
|--2---5-5--4--x-x--x-x--x-x--|
|--2---5-5--4--x-x--x-x--x-x--|
|--0---3-3--2--x-x--x-x--x-x--|



x ==> Mute note



Ikusi arte
----------

Gelditu ginen eta ez zinen agertu
eta gero gainera ez zenidan deitu

Idatzi nizun eta ez zenuen erantzun
nik atera nahi nuen, zuk ordea sartu

Zure atea jo nuen, ez zenuen ireki
etxera itzuli nintzen larrosa batekin

Bainan berdin du jada nik ez zaitut maite
bila ezazu beste bat eta ikusi arte (x3)
ikusi arte (x4)
Tap to rate this tab
 
# A B C D E F G H I J K L M N O P Q R S T U V W X Y Z