Song name
# A B C D E F G H I J K L M N O P Q R S T U V W X Y Z

Berry Chuck - Johnny B Good tab

hi i'm not to sure u would like this but it's good it's like my first time doin this
stuff so bare with me ok by the way i'm krazylegz frome canada    British Columbia i'm
22 year old and i have bin playin guitar since i waz 13 year's of age and i got this
song done with my cd-gt one guitar trainer

artist: Chuck barry's            
Song :Johnny B. Good 


|-----------------------------------------------------------------------|
|-----------------------------------------------------------------------|
|------------5--7/9-9-9--7/9-9-9--7/9-9-9----7\5------------------------|
|------5h7-----------------------------------------7-5-5/77777777-------|
|-----------------------------------------------------------------------|
|-----------------------------------------------------------------------|
                    
|-----------------|-----------------------------------------------------|
|-----------------|*--------h5--5-------h5--5-------h5--5-------h5--5--*|
|----9\7---5-7-5--|----7/9---------7/9---------7/9---------7/9----------|2X
|-----------------|-----------------------------------------------------|
|-----------------|*---------------------------------------------------*|
|-----------------|-----------------------------------------------------|
                      ^Repeat^^This^^part^^Twice^^

|-----------------------------------------------------------------------|
|-----------9--7---------10--8--------------------h5--5------h5--5------|
|-----7/9---------9--7----------9-7\5-7-5----7/9---------7/9------------|
|-----------------------------------------------------------------------|
|-----------------------------------------------------------------------|
|-----------------------------------------------------------------------|

|------------------------------------|
|------------------------------------|
|--7--5------------------------------|
|---------7--5--5/7-7-7-7-7-7-7-7----|
|------------------------------------|
|------------------------------------|

so if u have any coment's drop a line to (krazylegz_03@hotmail.com)
Even better add me to ur messenger if u have it hahahahaha hosta la vesta
Tap to rate this tab
# A B C D E F G H I J K L M N O P Q R S T U V W X Y Z