Song name
# A B C D E F G H I J K L M N O P Q R S T U V W X Y Z

Berryz Koubou - Maji Bomber tab

Maji Bomber Solo
by Berryz Kobou
tabbed by manOutOfTime

-------------------------|------------------|--------------------------------|
-101010--101010--11-10-8-|-666--666--8-10-8-|-101010--101010--11-10-8--------|
-9-9-9---9-9-9---10-9--7-|-555--555--7-9--7-|-9-9-9---9-9-9---10-9--7--------|
-7-7-7---7-7-7---8--7--5-|-333--333--5-7--5-|-7-7-7---7-7-7---8--7--5--------|
-------------------------|------------------|--------------------------------|
-------------------------|------------------|--------------------------------|

------8-8-------8-8-8--78-8-|-8-8\5-5-5--3-3-3--------|----------------------|
-666--8-8-6-6-6-8-8-8--88-8-|-8-8\5-5-5--3-3-3--6-6-6-|----------6-6-6-------|
-555------5-5-6-------------|-------------------5-5-5-|-7-7-7-\5-5-5-5-------|
-333------3-3-3-------------|-------------------------|-7-7-7-\5-------------|
----------------------------|-------------------------|----------------------|
----------------------------|-------------------------|----------------------|

----------------------|----10----1010----1010---------|-10101010-------------|
---6-8b10--10r8p6-8-6-|-8b----8b------8b------10p8/12-|-12121212-------------|
-5------------------5-|-------------------------------|----------------------|
----------------------|-------------------------------|----------------------|
----------------------|-------------------------------|----------------------|
----------------------|-------------------------------|----------------------|

-------------|-------------|-------|-----------------------------------------|
-13-13-13-13-|-13-13-13-13-|-13-13-|-----------------------------------------|
-12-12-12-12-|-12-12-12-12-|-12-12-|-----------------------------------------|
-12-12-12-12-|-12-12-12-12-|-12-12-|-----------------------------------------|
-------------|-------------|-------|-----------------------------------------|
-------------|-------------|-------|-----------------------------------------|
                                     to verse...
Tap to rate this tab
 
# A B C D E F G H I J K L M N O P Q R S T U V W X Y Z