Song name
# A B C D E F G H I J K L M N O P Q R S T U V W X Y Z

Berryz Koubou - Ai No Dangan tab

Ai No Dangan
by Berryz Kobou
tabbed by manOutOfTme

INTRO
-----4----------4----------4-------------8--\--|
-6-4---6-45-6-4---6-45-6-4---6-45-----8--------|
-----------------------------------5-----------|
-----------------------------------------------|
-----------------------------------------------|
-----------------------------------------------|
                          
CHORUS 
---------------|--------------|------------|--------------|
---------------|--------------|------------|--------------|
-10-10---------|--------------|------------|---8-8--------|
-10-10--10-10--|-11-11--10-10-|-8-8--6-6---|---8-8--10-10-|
-8--8---10-10--|-11-11--10-10-|-8-8--6-6---|---6-6--10-10-|
--------8--8---|-9--9---8--8--|-6-6--4-4---|--------8--8--| x2
                                            
Ai no dangan
Kimi no haato itometai no ni
Jouzu ni kawasare ketten

-----11-----------------13vvvvvv\\\-|
-11b----11b--11p9-11p9--------------|
------------------------------------|
------------------------------------|
------------------------------------|
------------------------------------|

Ai no oopuningu
Hajimatta kono monogatari
Kitto sono kokoro ubau 

MAIN RIFF
------------/13vvv---13-15-/16-15-----------------------|
-11b13-11-9------------------------16-16---11-/13vvvvv\-|
--------------------------------------------------------|
--------------------------------------------------------|
--------------------------------------------------------|
--------------------------------------------------------|
                                                  
------------/13vvvv-13-15-16-18--16-15----1313--12vvv\|
-11b13-11-9-------------------------------------------|
------------------------------------------------------|
------------------------------------------------------|
------------------------------------------------------|
------------------------------------------------------|

VERSE 1
-----------------|-----------------|----------------|-------------------|
-----------------|-----------------|-4----4-----4---|---4-----4//6\\4---|
-----------------|-3-----3-----3---|-3----3-----3---|---3-----3//5\\3---|
-----------------|-3-----3-----3---|--1-1---1-1---1-|-1---1-1---------1-|
-----------------|---1-1---1-1---1-|----------------|-------------------|
-1-1-1-1-1-1-1-1-|-----------------|----------------|-------------------|
Seiten ga tsuzuku                   Kibun mo joujou
                                                                   
-----------------|-----------------|-----------------|-------------------|
-----------------|-----------------|-4-4-------------|-------------------|
-----------------|-3-----3-----3---|-3-3--5-5--------|-------------------|
-----------------|-3-----3-----3---|-1-1--5-5--3-----|-3-----3---3-------|
-----------------|---1-1---1-1---1-|------3-3--3-----|-3-----3---3-------|
-1-1-1-1-1-1-1-1-|-----------------|-----------1-1-1-|---1-1---1---1-1-1-|
Kimi to arukitai                     Dokomade demo
                                                                              
-----------------|-----------------|-----------------|(---------8brbrbr-)(-----------------)
-----------------|-----------------|-4-----4-----4---|(-------8---------)(-----6^-6^--5^6^-)
-----------------|-3-----3-----3---|-3-----3-----3---|(-5-5-------------)(-5-5-------------)
-----------------|-3-----3-----3---|---1-1---1-1---1-|(-5-5-------------)(-5-5-------------)
-----------------|---1-1---1-1---1-|-----------------|(-3-3-------------)(-3-3-------------)
-1-1-1-1-1-1-1-1-|-----------------|-----------------|(-VERSE 1 VERSION-)(-VERSE 2 VERSION-)
 Mabushii egao                      Mabushii gendo)
                                                                             
-----------------|-----------------|----------------|------------/13vvv---|
-----------------|-----------------|-4-4------------|-11b13r11-9----------|
-----------------|-3-----3-----3---|-3-3-5-5--------|---------------------|
-----------------|-3-----3-----3---|-1-1-5-5--3-----|---------------------|
-----------------|---1-1---1-1---1-|-----3-3--3-----|---------------------|
-1-1-1-1-1-1-1-1-|-----------------|----------1-1-1-|---------------------|
Haaree ni notte mo                   Kiza ni mienai

BRIDGE
 PM===================================================================
---------1-------|-3-------3-------|-4-------4-------|-1-------1-------|
-----2-------2---|-----4-------4---|-----4-------4---|-----2-------2---|
-3-----3---3---3-|---3---3---3---3-|-------5---5-----|---3---3---3---3-|
---3-------------|-----------------|---6-----------6-|-----------------|
-----------------|-----------------|-----------------|-----------------|
-----------------|-----------------|-----------------|-----------------|
 F                D#                 G#              | F                      
                                                     |-------------------------------|
                                                     |-11b13r11-9-11-9h11p9----------|
                                                     |---------------------12-9/10vv-|
                                                     |-------------------------------|
                                                     |-------------------------------|
                                                     |-------------------------------|
Ichido dake Uso tsuitan da
PM===============================>
-1-------1-------|-4-------4-------|-----------|------------------11---------|
-----2-------2---|-----4-------4---|-----------|----11b13r11-9-/13--\11-9----|
---3---3---3---3-|-------5---5-----|-9--999910-|-9------------------------10-|
-----------------|---6-----------6-|-9--999910-|-9---------------------------|
-----------------|-----------------|-7--77778--|-7---------------------------|
-----------------|-----------------|-----------|-----------------------------|
 F                G#                 E           E                            
Kisu kurai nando mo shita koto aru tte

CHORUS
Ai no dangan
Watashi goto tobikon de mitai
Kimi wa itsu demo manten!

Ai no misuterii
Nazo bakari kono monogatari
Fukai meiro ni idomu

MAIN RIFF

VERSE 2
Ame no hi mo aru sa
Demo hikatteru
Kimi wa tenshi da ne
Kuyashii hodo

Nando mo katari
Nando mo atta
Yurushite iru no ni
Mada todoka nai

BRIDGE
Aijou yori
Yuujou da nante
Seishun manga da yo shouwa jidai no

CHORUS
Ai no dangan
Kimi no haato itometai no ni
Jouzu ni kawasare ketten

Ai no oopuningu
Hajimatta kono monogatari
Kitto sono kokoro ubau 

SOLO
-16b18b17b18b17b18b17b18b17b18b17-16b17r16-13-/13-11b13-13-11-------------|
--------------------------------------------------------------13-11b-9----|
-----------------------------------------------------------------------10-|
--------------------------------------------------------------------------|
--------------------------------------------------------------------------|
--------------------------------------------------------------------------|
                                                                       
---------8----------------------------------------------------------------|
-9-11-12---12-11-9----9----9----------------------------------------------|
-------------------10---10---10-8-----------------------------------------|
----------------------------------10-8----8-10-8----8---------------------|
---------------------------------------11--------11---11brbrbrbr\\\\\\\\\-|
--------------------------------------------------------------------------|
                                                                       
----------------------------------------------------------------------------
----------------------------------------------------------11----/11----11-11
------------------------------------10----/10----10-13-13----13-----13------
-------------8----8-/10----10-13-13----13-----13----------------------------
-8----8-11-11--11-------13--------------------------------------------------
---11-----------------------------------------------------------------------
 PM=====================================>                                  

----11----|
-13----13-|
----------|
----------|
----------|
----------|
                                                           
-12b13-11-12b13vvvvv-12b13vvvv-12b13vvvv---------------------------|
-----------------------------------------11b13--11-9-11b13---11--9-|
-------------------------------------------------------------------|
-------------------------------------------------------------------|
-------------------------------------------------------------------|
-------------------------------------------------------------------|

--------------16-18b20hhhhhr19b20r19b20r19b20r18-19\\\\\\\\\\\\--|
-11b13-16b18-----------------------------------------------------|
-----------------------------------------------------------------|
-----------------------------------------------------------------|
-----------------------------------------------------------------|
-----------------------------------------------------------------|
                                                            
------------------------|
------------------------|
------------------------|
------------------------|
-15---14-13-11vvvvvvvvv-|
------------------------|

CHORUS x4
Ai no dangan
Watashi goto tobikon de mitai
Kimi wa itsu demo manten!

Ai no misuterii
Nazo bakari kono monogatari
Fukai meiro ni idomu

Ai no dangan
Kimi no haato itometai no ni
Jouzu ni kawasare ketten

-----11-----------------13vvvvvv\\\-|
-11b----11b--11p9-11p9--------------|
------------------------------------|
------------------------------------|
------------------------------------|
------------------------------------|

Ai no oopuningu
Hajimatta kono monogatari
Kitto sono kokoro ubau

MAIN RIFF

F
Tap to rate this tab
# A B C D E F G H I J K L M N O P Q R S T U V W X Y Z