Guitaretab - guitar tabs
Song name
# A B C D E F G H I J K L M N O P Q R S T U V W X Y Z

Berryz Koubou - Fighting Pose Wa Date Janai tab

Highlighted       Show chord diagrams
Intro:
A  (/C#)  D   E   (x2)
G     E7   
G     E9  

FAITINGU POOZU wa DATE ja nai!
A                 F#m 
dare ni mo makenu koi ga shitai!
Bm                  E
gakkouchuu de wa uwasa jan!
A                F#m   
ninki no senpai jan!  ATAKKU! 
Bm               E      A   (D/A)

koibito miman to ka  tomodachi da to ka
C#7                  F#m  
kotoba ni ayatsurarecha  DAME
C#7                 F#m  A (7)   
jibun no shoujiki na aijou ga
D        Dm          A     F#7   
subete wo monogataru
B         B7      G6   Gb7   FM7  E

CHORUS:
MISUTERII MISUTERII  da ne
A         D 
kono koi no yukue dake wa
E          C#7         F#m
hyakuten totte miruzo
  B7           E/B    E7

kikkakee  kikkakee nara
tsukanderu  dakedo  dakedo
mou chotto  kyori ga aru no ne

FAITINGU
A        D   E        A  D  E


bouken bakari ga yume ja nai!
tegatai koi datte ii ja nai!
dare demo saisho wa kowai jan!
marude JETTO KOOSUTAA! janjan!
[ Tab from: http://www.guitaretab.com/b/berryz-koubou/93953.html ]
dare ni mo taisetsu na  himitsu ga aru yo
muri ni hanasenakutemo  OK
shinjiru kokoro dake  wasurezu ni
shikkari ikite yukou

Solo:
F  C   G   D
F  C   E   E7

e-----13--11--------------------------------------------------------------
b------------13-11--------13-11----------------------------7------10---10-
g--10---------------12---------------12-10---10----0-----7----------------
d----------------------10-----------------------12-------------12---12----
a---------------------------------10-------------------9------------------
e-------------------------------------------------------------------------

e-----13-11-----------------------------------------------------------16-
b-----------13-11--------13-11----11----12-13-12-13--------------12------
g--10--------------12----------12----12--------------13-14-13-14---------
d---------------------10-------------------------------------------------
a------------------------------------------------------------------------
e------------------------------------------------------------------------

CHORUS:
bikkurii bikkurii to ka
shichau kedo  sore ga  koi ne
totsuzen  ii hi mo aru

jikkurii jikkurii yukou
aserazu ni  jibun rashiku
sou itte  shinkokyuu shite goran
FAITINGU

bikkurii bikkurii to ka
shichau kedo  sore ga  koi ne
totsuzen  ii hi mo aru

jikkurii  jikkurii yukou
aserazu ni  jibun rashiku
sou itte  shinkokyuu shite goran
FAITINGU
Related for Fighting Pose Wa Date Janai tab