Song name
# A B C D E F G H I J K L M N O P Q R S T U V W X Y Z

Bersuit Vergarabat - Madre Hay Una Sola tab

Help us improve GuitareTab! Take a short survey!
"Los pocos que te aman...no tienen fuerzas"...

Intro: G D Em C

      G                         D
e|--10-8-7--------------------8-7-5-----------------|
b|----------10-8-7------------------8-7-5-----------|
g|-----------------9-9-7-7-----------------7-7-5-5--|
a|--------------------------------------------------|
d|--------------------------------------------------|
E|--------------------------------------------------|

      Em                    C
e|--7-5-3-----------------5-3-3-2-2-----------------|
b|---------7-5-3---------------------5-3------------|
g|----------------5-4---------------------5-4-2-0---|
d|--------------------------------------------------|
a|--------------------------------------------------|
E|--------------------------------------------------|

    G			      D
Ciudades gigantes, enormes cloacas
	   Em			       C
Viajan torrentes hacia el mar, de un amor que huele mal.
	   G			        D
Como anuncindole al cielo, nuestro destino
	    Em				    C
Se ven las marcas de la muerte, por las ventanas del avin.
 
        G		               D
El progreso fue un fracaso, fue un suicidio
	    Am			      C
La ansiada prosperidad, fue el ms pesado vagn.
	      G			         D
Para qu un juicio final? Si ya estamos desechos
           Am			  C
Una explosin natural, har una gran seleccin.

           G		        B7
Yo te agradezco, porque aqu estoy
     Em			            C
Vos sos mi nica madre, con alma y vida yo venero tu jardn.
        G		 B7
Te agradezco, aunque me voy
        Em
Avergonzado por ser parte de la especie
	     C
Que hoy te viola en un pattico festn.

	        G 			     D
Y aun no te libraste de nosotros, nuestra desidia
	   Em		          C
Fue por tenerte regalada, el creer que no vales nada.
	  G			       D
Estas pariendo hijos ciegos, estas cansada
	    Em			   D
Aunque tus lgrimas saladas, nos pueden ahogar si quieres.


     G			          D
Los pocos que te aman, no tiene fuerzas
         Am		           C
Como reliquias se pasean, solo paquetes de turismo son.
	    G				D
No hay mas amigos del sol, no hay mas ofrendas
	    Am				C
Solo este ataque mortal al medio del corazn.

Yo te agradezco... x2

Final: G D Em C
Related for Madre Hay Una Sola tab