Song name
# A B C D E F G H I J K L M N O P Q R S T U V W X Y Z

Bert Jansch - Running From Home tab

Running From Home - Bert Jansch

I think this is near enough 100% correct. I've been through it many times to make sure 
it's right.

As for technique, Bert holds down the 6th string on the first fret with his fretting 
thumb throughout the song. I do this too.
I play the 6th & 4th strings with the thumb in an alternating bass style while the 
fingers play the melody notes on strings 1, 2 & 3.
The letters under the bars in the intro section indicate what digits i use to play the 
notes in the tab above.
p = thumb, i = 1st finger, m = 2nd finger & a = 3rd finger.

Tuning: Standard
Capo: 4th fret


Intro-
e|---------------|-0-------------|---------------|---------------|---------------|
b|-----------0---|-------3---1---|-0---------0---|-1-----0-------|---------------|
g|-------0H2-----|---------------|-------0H2-----|-----------2---|-0---------0---|
d|-----0-------0-|-----0-------0-|-----0-------0-|-----0-------0-|-----0-0H2---0-|
a|---------------|---------------|---------------|---------------|---------------|
e|-3-------3-----|-1-------1-----|-3-------3-----|-1-------1-----|-3-------3-----|
         i   m     a     m   m     m     i   m     m     m   i     i     i   i
   p   p   p   p   p   p   p   p   p   p   p   p   p   p   p   p   p   p   p   p


e|---------------|---------------|---------------|---------------|---------------|
b|-------0---1---|-0---------0---|-1-----0-------|---------------|-------0---1---|
g|-2-------------|-------0H2-----|---2-------2---|-0---------0---|-2-------------|
d|-----0-------0-|-----0-------0-|-----0-------0-|-----0-0H2---0-|-----0-------0-|
a|---------------|---------------|---------------|---------------|---------------|
e|-1-------1-----|-3-------3-----|-1-------1-----|-3-------3-----|-1-------1-----|
   i     m   m     m     i   m     m i   m   i     i     i   i     i     m   m
   p   p   p   p   p   p   p   p   p   p   p   p   p   p   p   p   p   p   p   p


Verse 1-
e|---------------|-0-------------|---------------|---------------|---------------|
b|-0---------0---|-------3---1---|-0---------0---|-1-----0-------|---------------|
g|-------0H2-----|---------------|-------0H2-----|-----------2---|-0---------0---|
d|-----0-------0-|-----0-------0-|-----0-------0-|-----0-------0-|-----0-0H2---0-|
a|---------------|---------------|---------------|---------------|---------------|
e|-3-------3-----|-1-------1-----|-3-------3-----|-1-------1-----|-3-------3-----|


e|---------------|---------------|-0-------------|---------------|---------------|
b|-------0---1---|-0---------0---|-------3---1---|-0---------0---|-1-----0-------|
g|-2-------------|-------0H2-----|---------------|-------0H2-----|---2-------2---|
d|-----0-------0-|-----0-------0-|-----0-------0-|-----0-------0-|-----0-------0-|
a|---------------|---------------|---------------|---------------|---------------|
e|-1-------1-----|-3-------3-----|-1-------1-----|-3-------3-----|-1-------1-----|


Verse 2-
e|---------------|-0-------------|---------------|---------------|---------------|
b|-----------0---|-------3---1---|-0---------0---|-1-----0-------|---------------|
g|-------0H2-----|---------------|-------0H2-----|---2-------2---|-0---------0---|
d|-----0-------0-|-----0-------0-|-----0-------0-|-----0-------0-|-----0-0H2---0-|
a|---------------|---------------|---------------|---------------|---------------|
e|-3-------3-----|-1-------1-----|-3-------3-----|-1-------1-----|-3-------3-----|


e|---------------|---------------|-0-------------|---------------|---------------|
b|-------0---1---|-0---------0---|-------3---1---|-0---------0---|-1-----0-------|
g|-2-------------|-------0H2-----|---------------|-------0H2-----|---2-------2---|
d|-----0-------0-|-----0-------0-|-----0-------0-|-----0-------0-|-----0-------0-|
a|---------------|---------------|---------------|---------------|---------------|
e|-1-------1-----|-3-------3-----|-1-------1-----|-3-------3-----|-1-------1-----|


e|---------------|---------------|---------------|---------------|
b|---------------|-------0---1---|-0---------0---|-1-----0-------|
g|-0---------0---|-2-------------|-------0H2-----|---2-------2---|
d|-----0-0H2---0-|-----0-------0-|-----0-------0-|-----0-------0-|
a|---------------|---------------|---------------|---------------|
e|-3-------3-----|-1-------1-----|-3-------3-----|-1-------1-----|


Verse 3-
e|---------------|-0-------------|---------------|---------------|---------------|
b|-----------0---|-------3---1---|-0---------0---|-1-----0-------|---------------|
g|-------0H2-----|---------------|-------0H2-----|---2-------2---|-0---------0---|
d|-----0-------0-|-----0-------0-|-----0-------0-|-----0-------0-|-----0-0H2---0-|
a|---------------|---------------|---------------|---------------|---------------|
e|-3-------3-----|-1-------1-----|-3-------3-----|-1-------1-----|-3-------3-----|


e|---------------|---------------|-0-------------|---------------|---------------|
b|-------0---1---|-0---------0---|-------3---1---|-0---------0---|-1-----0-------|
g|-2-------------|-------0H2-----|---------------|-------0H2-----|---2-------2---|
d|-----0-------0-|-----0-------0-|-----0-------0-|-----0-------0-|-----0-------0-|
a|---------------|---------------|---------------|---------------|---------------|
e|-1-------1-----|-3-------3-----|-1-------1-----|-3-------3-----|-1-------1-----|


Verse 4-
e|---------------|-0-------------|---------------|---------------|---------------|
b|-----------0---|-------3---1---|-0---------0---|-1-----0-------|---------------|
g|-------0H2-----|---------------|-------0H2-----|---2-------2---|-0---------0---|
d|-----0-------0-|-----0-------0-|-----0-------0-|-----0-------0-|-----0-0H2---0-|
a|---------------|---------------|---------------|---------------|---------------|
e|-3-------3-----|-1-------1-----|-3-------3-----|-1-------1-----|-3-------3-----|


e|---------------|---------------|-0-------------|---------------|---------------|
b|-------0---1---|-0---------0---|-------3---1---|-0---------0---|-1-----0-------|
g|-2-------------|-------0H2-----|---------------|-------0H2-----|---2-------2---|
d|-----0-------0-|-----0-------0-|-----0-------0-|-----0-------0-|-----0-------0-|
a|---------------|---------------|---------------|---------------|---------------|
e|-1-------1-----|-3-------3-----|-1-------1-----|-3-------3-----|-1-------1-----|


Verse 5-
e|---------------|-0-------------|---------------|---------------|---------------|
b|-----------0---|-------3---1---|-0---------0---|-1-----0-------|---------------|
g|-------0H2-----|---------------|-------0H2-----|---2-------2---|-0---------0---|
d|-----0-------0-|-----0-------0-|-----0-------0-|-----0-------0-|-----0-0H2---0-|
a|---------------|---------------|---------------|---------------|---------------|
e|-3-------3-----|-1-------1-----|-3-------3-----|-1-------1-----|-3-------3-----|


e|---------------|---------------|-0-------------|---------------|---------------|
b|-------0---1---|-0---------0---|-------3---1---|-0---------0---|-1-----0-------|
g|-2-------------|-------0H2-----|---------------|-------0H2-----|---2-------2---|
d|-----0-------0-|-----0-------0-|-----0-------0-|-----0-------0-|-----0-------0-|
a|---------------|---------------|---------------|---------------|---------------|
e|-1-------1-----|-3-------3-----|-1-------1-----|-3-------3-----|-1-------1-----|


e|---------------|---------------|---------------|-0-------------|---------------|
b|---------------|-------0---1---|-0---------0---|-------3---1---|-0---------0---|
g|-0---------0---|-2-------------|-------0H2-----|---------------|-------0H2-----|
d|-----0-0H2---0-|-----0-------0-|-----0-------0-|-----0-------0-|-----0-------0-|
a|---------------|---------------|---------------|---------------|---------------|
e|-3-------3-----|-1-------1-----|-3-------3-----|-1-------1-----|-3-------3-----|


e|---------------|---------------|---------------|
b|-1-----0-------|---------------|-------0---1---|
g|---2-------2---|-0---------0---|-2-------------|
d|-----0-------0-|-----0-0H2---0-|-----0-------0-|
a|---------------|---------------|---------------|
e|-1-------1-----|-3-------3-----|-1-------1-----|


Verse 6-
e|---------------|-0-------------|---------------|---------------|---------------|
b|-0---------0---|-------3---1---|-0---------0---|-1-----0-------|---------------|
g|-------0H2-----|---------------|-------0H2-----|-----------2---|-0---------0---|
d|-----0-------0-|-----0-------0-|-----0-------0-|-----0-------0-|-----0-0H2---0-|
a|---------------|---------------|---------------|---------------|---------------|
e|-3-------3-----|-1-------1-----|-3-------3-----|-1-------1-----|-3-------3-----|


e|---------------|---------------|-0-------------|---------------|---------------|
b|-------0---1---|-0---------0---|-------3---1---|-0---------0---|-1-----0-------|
g|-2-------------|-------0H2-----|---------------|-------0H2-----|---2-------2---|
d|-----0-------0-|-----0-------0-|-----0-------0-|-----0-------0-|-----0-------0-|
a|---------------|---------------|---------------|---------------|---------------|
e|-1-------1-----|-3-------3-----|-1-------1-----|-3-------3-----|-1-------1-----|


Verse 7-
e|---------------|-0-------------|---------------|---------------|---------------|
b|-----------0---|-------3---1---|-0---------0---|-1-----0-------|---------------|
g|-------0H2-----|---------------|-------0H2-----|-----------2---|-0---------0---|
d|-----0-------0-|-----0-------0-|-----0-------0-|-----0-------0-|-----0-0H2---0-|
a|---------------|---------------|---------------|---------------|---------------|
e|-3-------3-----|-1-------1-----|-3-------3-----|-1-------1-----|-3-------3-----|


e|---------------|---------------|-0-------------|---------------|---------------|
b|-------0---1---|-0---------0---|-------3---1---|-0---------0---|-1-----0-------|
g|-2-------------|-------0H2-----|---------------|-------0H2-----|---2-------2---|
d|-----0-------0-|-----0-------0-|-----0-------0-|-----0-------0-|-----0-------0-|
a|---------------|---------------|---------------|---------------|---------------|
e|-1-------1-----|-3-------3-----|-1-------1-----|-3-------3-----|-1-------1-----|


e|---------------|---------------|
b|---------------|-------0---1---|
g|-0---------0---|-2-------------|
d|-----0-0H2---0-|-----0-------0-|
a|---------------|---------------|
e|-3-------3-----|-1-------1-----|


Outro-
e|---------------|---------------|---------------|---------------|---------------|
b|-3-----3-------|-1-----0---1---|-3-----3-------|-1-----0---1---|-3-----3-------|
g|---0-------0---|---2-----------|---0-------0---|---2-----------|---0-------0---|
d|-----0-------0-|-----0-------0-|-----0-------0-|-----0-------0-|-----0-------0-|
a|---------------|---------------|---------------|---------------|---------------|
e|-3-------3-----|-1-------1-----|-3-------3-----|-1-------1-----|-3-------3-----|


e|---------------|---------------|
b|-1-----0-------|---------------|
g|---2-------2---|-0-------------|
d|-----0-------0-|---------------|
a|---------------|---------------|
e|-1-------1-----|-3-------------|


Tabbed by Peter Jones
Tap to rate this tab
# A B C D E F G H I J K L M N O P Q R S T U V W X Y Z