Song name
# A B C D E F G H I J K L M N O P Q R S T U V W X Y Z

Bert Jansch - One For Jo tab

Help us improve GuitareTab! Take a short survey!
Tabbed by Jamie Phillips (jamiephillips22@hotmail.com)

Artist: Bert Jansch
Track title: One For Jo
Album: L.A. Turnaround
Tuning: EADGBE (Standard)
Capo: 4th Fret

This is a very pretty little song and the good news is that it's a 
doddle to play. I've tabbed the short intro and the 1st verse, the rest
is the same with very minor differences. The rhythm contains bars of 
2,4 and 5, but it feels very natural when you know the song. The 
asterisks are a guide to the beats in each bar. Enjoy! :o)

Rhythm: 2/4, 4/4, 5/4

Inro:
Beat:*     *     *        *        *     *     *     *
E||-----------------------------|-----------------------3--|
B||--3-----------3--------------|--1-----1--3--------------|
G||--2-h4-----4--2h4p2p0-----4--|-----4--------------2-----|
D||--------0--------------0-----|-----------------0--------|
A||-----------------------------|--0-----------------------|
E||--3-----------3--------------|--------3-----2-----------|


   *    *     *        *        *     *     *     * 
E--3-------------------------|--------------------------|
B-------------3--------------|--1-----1--3--------------|
G----------4--2h4p2p0-----4--|-----4--------------2-----|
D-------0--------------0-----|-----------------0-----0--|
A----------------------------|--0-----------------------|
E--3----------3--------------|--------3-----2-----------|

 Verse:
   *     *     *        *        *     *     *     *
E-----------------------------|--------------------------|
B--3-----------3--------------|--1-----1--3--------------|
G--2-h4-----4--2h4p2p0-----4--|-----4--------------2-----|
D--------0--------------0-----|-----------------0-----0--|
A-----------------------------|--0-----------------------|
E--3-----------3--------------|--------3-----2-----------|


   *     *     *        *        *     *     *     * 
E-----------------------------|--------------------------|
B-----------------------------|--1-----1--3--------------|
G--2-h4-----4--2h4p2p0-----4--|-----4--------------2-----|
D--------0--------------0-----|-----------------0-----0--|
A-----------------------------|--0-----------------------|
E--3-----------3--------------|--------3-----2-----------|


   *     *     *     *        *     *         *     *     *     *
E--------5-----------3-----|---------------|--------2-----0-----0h2----|
B-----------------0-----1--|--0-----0-h1p0-|--------3-----3-----3------|
G-----5--------------------|-----2---------|-----2---------------------|
D--3--------3--------------|---------------|--0--------0-----0------0--|
A--------------------------|--0-----3------|---------------------------|
E--------------0-----------|---------------|---------------------------|


   *     *     *        *        *     *
E-----------------------------|--------------|
B--3-----------3--------------|--1-----1-----|
G--2-h4-----4--2h4p2p0-----4--|-----4-----4--|
D--------0--------------0-----|--------------|
A-----------------------------|--0-----------|
E--3-----------3--------------|--------3-----|


   *     *     *     *      *        *    *      *        *         *    *
E--------------0-----7b8-7-----0--|------------------------------|------------|
B--------8--8-----8---------8-----|--3-------3---3-----------3---|--3---------|
G-----0---------------------------|----------0h2-2h4p2p0-----0h2-|--0---------|
D---------------------------------|-------0---------------0------|-------0----|
A--------------------0------------|------------------------------|------------|
E-/8-----------7------------------|--3-----------3---------------|--3---------|

TAB Guide: h = hammer on, p = pull off
           b = bend note up into next note
           / = slide into note from below
Related for One For Jo tab