Guitaretab - guitar tabs
Song name
# A B C D E F G H I J K L M N O P Q R S T U V W X Y Z
Home / B / Bertolf / Mary tab

Bertolf - Mary tab

-------------------------------------------------------------------------------
                             Mary - Bertolf
-------------------------------------------------------------------------------


Tuning: Stadard
Capo on 3rd fret

    C               F       G       Am7     G

E|--0h3-------------------------0---0----1p0-------------------------------|
B|------------1-------1-----3---------------3-------------1p0--------------|
G|--------0-------0h2-----0---0---0---0-------0---0---0-------0-------0----|
D|------2-----------------------0-------2-------0-------0-------0h3-----3--|
A|--3-----------3-------3-----------0--------------------------------------|
E|----------3-------1-------3---------------3-------3-------3-------3------|


    F               G             Am7 G

E|--------1---0---------------------0--------------------------------------|
B|----1---------------3---1---3---------1---------------------0-0h1-3------|
G|----------------2-------------------------0---0---0-------0--------------|
D|------3-------3-------0-------0-----2-------0-------2h3-----3------------|
A|--------------------------------0----------------------------------------|
E|--1-------1-------3-------3-------------3-------3-------3-------3--------|

[ Tab from: http://www.guitaretab.com/b/bertolf/316767.html ]
    C               F       G       Am7     G

E|--0h3-------------------------0---0----1p0-------------------------------|
B|------------1-------1-----3---------------3-------------1p0--------------|
G|--------0-------0h2-----0---0---0---0-------0---0---0-------0-------0----|
D|------2-----------------------0-------2-------0-------0-------0-3-----3--|
A|--3-----------3-------3-----------0--------------------------------------|
E|----------3-------1-------3---------------3-------3-------3-------3------|


    F               G               C

E|--------1---0--------------3---------------------------------------------|
B|----1---------------3---3/5\3-----1-----1-------1-------1-------1--------|
G|----------------2-------------------0-------0-------0-------0------------|
D|------3-------3-------0---------------2-------2-------2-------2----------|
A|----------------------------------3---------------3----------------------|
E|--1-------1-------3------/5---------------3---------------3--------------|


************************************

| /   slide up
| \   slide down
| h   hammer-on
| p   pull-off
| ~   vibrato
| +   harmonic
| x   Mute note
| b   Bend
| pb  Pre-bend
| br  Bend release
| pbr Pre-bend release
| brb Bend release bend

************************************
Related for Mary tab
Mary chords by Bertolf