Song name
# A B C D E F G H I J K L M N O P Q R S T U V W X Y Z

Berurier Noir - Nuit Apache tab

Bérurier noir - Nuit apache:
****************************

intro/couplet:

e)-----------------------------------------------|
B)-----------------------------------------------|
G)--------9-999----------------------------------|
D)--------9-999--9-999--10-101010--9--10-101010--|
A)--------7-777--9-999--10-101010--9--10-101010--|
E)---------------7-777---8--8-8-8--7---8--8-8-8--|

refrain:

e)-----------------------------------------------|
B)-----------------------------------------------|
G)-----------------------------------------------|
D)-------77--66--77--1010------------------------|
A)-------77--66--77--1010------------------------|
E)-------55--44--55---8-8------------------------|
Tap to rate this tab
# A B C D E F G H I J K L M N O P Q R S T U V W X Y Z