Song name
# A B C D E F G H I J K L M N O P Q R S T U V W X Y Z

Berurier Noir - Manifeste tab

Bérurier Noir - Manifeste: 
**************************

Intro: (étouffer après chaque accord)

e)-----------------------------------------------------------------------|
B)-----------------------------------------------------------------------|
G)---7---7---7---7---6---6---6---6---6---------------------------9---5---|
D)---7---7---7---7---6---6---6---6---6---5---5---5---5---8---8---9---5---|
A)---5---5---5---5---4---4---4---4---4---5---5---5---5---8---8---7---3---|
E)---------------------------------------3---3---3---3---6---6-----------|


Couplet: (enfin reste de la chanson...)

e)----------|
B)----------|
G)---7-7-7~-| Riff A 
D)---7-7-7~-|
A)---5-5-5~-|
E)----------|
 pm  * *

e)----------|
B)----------|
G)---6-6-6~-| Riff B                   Riff A 4x
D)---6-6-6~-|                          Riff B 4x
A)---4-4-4~-|                          Riff C 4x
E)----------|                          Riff D 2x
 pm  * *                               Riff E 2x  

e)----------|
B)----------|
G)----------| Riff C 
D)---5-5-5~-|
A)---5-5-5~-|
E)---3-3-3~-|
 pm  * *

e)----------|
B)----------|
G)----------| Riff D
D)---8-8-8~-|
A)---8-8-8~-|
E)---6-6-6~-|
 pm  * *

e)----------|
B)----------|
G)---5-5-5~-| Riff E 
D)---5-5-5~-|
A)---3-3-3~-|
E)----------|
 pm  * *

Vive le mouvement d'la jeunesse!!!
Tap to rate this tab
# A B C D E F G H I J K L M N O P Q R S T U V W X Y Z