Song name
# A B C D E F G H I J K L M N O P Q R S T U V W X Y Z

Berurier Noir - Bucherons tab

Bérurier noir - Bûcherons:
**************************

Intro / Couplet:

e)-----------------------------------------------------------------------|
B)-----------------------------------------------------------------------|
G)-----------------------------------------------------------------------|
D)-------7-------7-------8-------10------7-------7-------8-------5-------|
A)-------7-------7-------8-------10------7-------7-------8-------5-------|
E)---5-5-5---5-5-7---6-6-6---8-8-8---5-5-5---5-5-5---6-6-6---3-3-3-------|
PM   * *     * *     * *     * *     * *     * *     * *     * *

Refrain: (jouer l'accord puis étouffer)

e)-----------------------------------------------------------------------|
B)-----------------------------------------------------------------------|
G)-----7~---7~---5~---5~-------------------------------------------------|
D)-----7~---7~---5~---5~-------------------------------------------------|
A)-----5~---5~---3~---3~-------------------------------------------------|
E)-----------------------------------------------------------------------|
Tap to rate this tab
 
# A B C D E F G H I J K L M N O P Q R S T U V W X Y Z