Song name
# A B C D E F G H I J K L M N O P Q R S T U V W X Y Z

Berurier Noir - Et Hop tab

Bérurier Noir - Et Hop:
***********************

intro/Couplet: 
(au millieu du couplet la manière d'attaquer les cordes changent)

e)----------------------------------------|
B)----------------------------------------|
G)----------------------------------------|
D)----7-7-7---101010---8-8-8---5-5-5------|
A)----7-7-7---101010---8-8-8---5-5-5------|
E)----5-5-5----8-8-8---6-6-6---3-3-3------|


Refrain:
(vraiment pas sur a 100% mais les accords sont les bons)

e)----------------------------------------|
B)----------------------------------------|
G)----------------------------------------|
D)----7-x-x-7-x-7-7-7---7-x-x-7-x-7-7-7---|
A)----7-x-x-7-x-7-7-7---7-x-x-7-x-7-7-7---|
E)----5-x-x-5-x-5-5-5---5-x-x-5-x-5-5-5---|

e)----------------------------------------|
B)----------------------------------------|
G)----------------------------------------|
D)----7-x-x-7-x-7-7-7---8-x-x-8-x-8-8-8---|
A)----7-x-x-7-x-7-7-7---8-x-x-8-x-8-8-8---|
E)----5-x-x-5-x-5-5-5---6-x-x-6-x-6-6-6---|



Tap to rate this tab
# A B C D E F G H I J K L M N O P Q R S T U V W X Y Z