Song name
# A B C D E F G H I J K L M N O P Q R S T U V W X Y Z

Berurier Noir - Noir Les Horreurs tab

Band: Bérurier Noir
Title: Noir les horreurs/ It's the same tabs for Manifeste
Album: Macadam Massacre, Viva Bertaga et Enfoncez l'clown

X=Mute

E|-------------------------------------------|
B|-------------------------------------------|
G|-X--X-9--9-X--X-9--9-X--X-9--9-X--X-9--9---|
D|-X--X-9--9-X--X-9--9-X--X-9--9-X--X-9--9---|
A|-X--X-7--7-X--X-7--7-X--X-7--7-X--X-7--7---|
E|-------------------------------------------|
Je hait mon pays, je hait la france...
E|-------------------------------------------|
B|-------------------------------------------|
G|-X--X-8--8-X--X-8--8-X--X-8--8-X--X-8--8---|
D|-X--X-8--8-X--X-8--8-X--X-8--8-X--X-8--8---|
A|-X--X-6--6-X--X-6--6-X--X-6--6-X--X-6--6---|
E|-------------------------------------------|
"Je n'suis qu'un survivant de l'armée rouge...
E|-------------------------------------------|
B|-------------------------------------------|
G|-------------------------------------------|
D|-X--X-7--7-X--X-7--7-X--X-7--7-X--X-7--7---|
A|-X--X-7--7-X--X-7--7-X--X-7--7-X--X-7--7---|
E|-X--X-5--5-X--X-5--5-X--X-5--5-X--X-5--5---|
Je hait... et je hait...
E|-------------------------------------------|
B|-------------------------------------------|
G|-X--X-5--5-X--X-5--5-X--X-7--7-X--X-7--7---|
D|-X--X-5--5-X--X-5--5-X--X-7--7-X--X-7--7---|
A|-X--X-3--3-X--X-3--3-X--X-5--5-X--X-5--5---|
E|-------------------------------------------|

That's all, it's a really simple tabs so enjoy it!
Tap to rate this tab
# A B C D E F G H I J K L M N O P Q R S T U V W X Y Z