Song name
# A B C D E F G H I J K L M N O P Q R S T U V W X Y Z

Berurier Noir - Johnny Revient Dla Guerre tab

Band:Bérurier Noir
Song:Johnny revient d'la guerre
Album:Macadam Massacre
Writer:Loran

1)---------------------------------------------------------------|
2)---------------------------------------------------------------|
3)---------------------------------------------------------------|
4)---------------------------------------------------------------|
5)---------------------------------------5-7--5-7--7-7--3-5--5-5-|
6)3-5--5-5--7-8--8-8--5-3--5-5--7-8--8-8-------------------------|

1)---------------------------------------------------------|
2)---------------------------------------------------------|
3)---------------------------------------------------------|
4)---------------------------------------------------------|
5)2-3--3-3--0-2--22--2-2-2-2-2-2--3-5-7-5-3-2--------------|
6)---------------------------------------------0--3-3--5-3-|

For any comments
Petit_Agité
antichrist_1996@msn.com
Tap to rate this tab
 
# A B C D E F G H I J K L M N O P Q R S T U V W X Y Z