Song name
# A B C D E F G H I J K L M N O P Q R S T U V W X Y Z

Berurier Noir - Vivre Libre Ou Mourir tab

Artiste:Bérurier Noir
Album:Concerto pour détraqués
Chanson:Vivre libre ou mourir

1)--------------------------------------------------------------|
2)--------------------------------------------------------------|
3)--------------------------------------------------------------|
4)7-x-x-7-x-x-7-x-7-x-x-7-x-x-7-x-6-x-x-6-x-x-6-x-6-x-x-6-x-x-6-|
5)5-x-x-5-x-x-5-x-5-x-x-5-x-x-5-x-4-x-x-4-x-x-4-x-4-x-x-4-x-x-4-|
6)5-x-x-5-x-x-5-x-5-x-x-5-x-x-5-x-4-x-x-4-x-x-4-x-4-x-x-4-x-x-4-|

1)-------------------------------------------------------------|
2)-------------------------------------------------------------|
3)-------------------------------------------------------------|
4)10-x-x-10-x-x-10-x-10-x-x-10-x-9-x-x-9-x-x-9-x-9-x-x-9-x-x-9-|
5) 8-x-x--8-x-x--8-x--8-x-x--8-x-7-x-x-7-x-x-7-x-7-x-x-7-x-x-7-|
6) 8-x-x--8-x-x--8-x--8-x-x--8-x-7-x-x-7-x-x-7-x-7-x-x-7-x-x-7-|

Cette chanson est une des plus simples que l'on puisse jouer, même pour les anglais et 
le québec libre

Pour des commentaires:antichrist_1996@msn.com
Tap to rate this tab
# A B C D E F G H I J K L M N O P Q R S T U V W X Y Z