Song name
# A B C D E F G H I J K L M N O P Q R S T U V W X Y Z

Berurier Noir - Fils De tab

Bérurier Noir
Fils de
Concerto pour détraqués
Tablature soumise par Petit_Agité
PM:Mute
^:Band
  1)------------------------------------------------------------|
  2)------------------------------------------------------------|
  3)------------------------------------------------------------|
  4)----------------------------------------------------------1-|
  5)9-9-9-9-9-9-9-9--4-4-4-4-4-4-4-4--8-8-8-8-8-8-8-8--4-4-4--3-|
  6)7-7-7-7-7-7-7-7--2-2-2-2-2-2-2-2--6-6-6-6-6-6-6-6--2-2-2----|
PM->. . . . . . . .  . . . . . . . .  . . . . . . . .  . . .
    FILS DE!

  1)-------------------------------|
  2)-------------------------------|
  3)-------------------------------|
  4)-------------------------------|
  5)9-9-9-9--4-4-4-4--8-8-8-8--4-4-|
  6)7-7-7-7--2-2-2-2--6-6-6-6--2-2-|
PM->. .      . .      . .
    J'suis l'enfant naturel...

  1)-----------------------------|
  2)-----------------------------|
  3)-----------------------------|
  4)-----------------------------|
  5)9-9-9-9--9-9-9--9-9-9-9--8-8-|
  6)7-7-7-7--7-7-7--7-7-7-7--6-6-|
PM->.        .      .
    Fils de!

Commentaires:antichrist_1996@msn.com
Tap to rate this tab
# A B C D E F G H I J K L M N O P Q R S T U V W X Y Z