Song name
# A B C D E F G H I J K L M N O P Q R S T U V W X Y Z

Berurier Noir - Vive Le Feu tab

Artiste: Bérurier Noir
Album:Concerto pour détraqués
Chanson:Vive le feu
transcrite par petit_agité(antichrist_1996@msn.com)
Intro:2x
1)----------------|
2)----------------|
3)----------------|
4)10-10--9-9--4-4-|
5) 8--8--7-7--2-2-|
6)----------------|

Riff principal( pour le rythme, écoutez la chanson, je ne peux malhreusement le transcrire) 10x
         . .
1)--------------------|
2)--------------------|
3)--------------------|
4)10-10--9-9-9-9--4-4-|
5) 8--8--7-7-7-7--2-2-|
6)--------------------|

Chorus: J'ai transcris les notes des voix plus que la guitare de Loran, le résultat est 
appréciable/2x
1)---------------------------------------------------------|
2)---------------------------------------------------------|
3)---------------------------------------------------------|
4)3-3-3--5--6--6-6--6--5--3--5-5-5--5--6--7--8--8--7--5--3-|
5)1-1-1--2--4--4-4--4--3--1--3-3-3--3--4--5--6--6--5--3--1-|
6)---------------------------------------------------------|

Répeter:
Riff 8x
Chorus 2x
Riff 4x
Chorus 2x
Riff 4x

Petit bridge avant «Vive,vive,vive le feu
  . . . . . . . .
1)----------------|
2)----------------|
3)----------------|
4)----------------|
5)1-1-1-1-1-1-1-1-|
6)----------------|

Répéter le chorus quatre fois avant le petit intermède musical

Si vous avez des questions ou tout simplement des commentaires, ne vous gênez pas, 
à antichrist_1996@msn.com
Tap to rate this tab
 
# A B C D E F G H I J K L M N O P Q R S T U V W X Y Z