Song name
# A B C D E F G H I J K L M N O P Q R S T U V W X Y Z

Berurier Noir - Vietnam Laos Cambodge tab

Help us improve GuitareTab! Take a short survey!
################################################
#    Bérurier Noir - Vietnam Laos Cambodge     #
#                                              #
#               Tuning : EADGBE                #
#              Effects : Distortion            #
#                                              #
#   Tabbed by RaSk / rask09[AT]gmail[DOT]com   #
#                                              #
################################################

Verse :
e|---------------------|
A|---------------------|
D|---------------------|
G|----/10--7--7--7-----|
B|----/10--7--7--7-----|
E|----/8---5--5--5-----|x2

e|---------------------|
A|---------------------|
D|---------------------|
G|----/9--5--5--5------|
B|----/9--5--5--5------|
E|----/7--3--3--3------|x2

Chorus :


e|--------------------|
A|--------------------|
D|--------------------|
G|---10---7---9---5---|
B|---10---7---9---5---|
E|---8----5---7---3---|  Each chord x16


Les bérus sont les rois !
Related for Vietnam Laos Cambodge tab