Song name
# A B C D E F G H I J K L M N O P Q R S T U V W X Y Z

Berurier Noir - Lempereur Tomato Ketchup tab

################################################
#   Bérurier Noir - L'Empereur Tomato Ketchup  #
#                                              #
#               Tuning : EADGBE                #
#              Effects : Distortion            #
#                                              #
#   Tabbed by RaSk / rask09[AT]gmail[DOT]com   #
#                                              #
################################################

Intro & Chorus :

e|-------------------|
A|-------------------|
D|-------------------|
G|---7---5---3---2---|
B|---7---5---3---2---|
E|---5---3---1---0---|

Verse :

e|-----------------------------------|
A|-----------------------------------|
D|-----------------------------------|
G|-7-x-x-7-x-x-7-x--6-x-x-6-x-x-6-x--|
B|-7-x-x-7-x-x-7-x--6-x-x-6-x-x-6-x--|
E|-5-x-x-5-x-x-5-x--4-x-x-4-x-x-4-x--|


e|-----------------------------|
A|-----------------------------|
D|-----------------------------|
G|-7-x-x-7-x-x-7-x----3---5----|
B|-7-x-x-7-x-x-7-x----3---5----|
E|-5-x-x-5-x-x-5-x----1---3----|

Tap to rate this tab
 
# A B C D E F G H I J K L M N O P Q R S T U V W X Y Z