Song name
# A B C D E F G H I J K L M N O P Q R S T U V W X Y Z

Berzerker - Corporal Jigsore Quandary tab

Help us improve GuitareTab! Take a short survey!
                     Berzerker - Corporal Jigsore Quandary

Album:Dissimulate
Tabbed by:RaRaRiot
Email:Sordfish999@aol.com

Tuning:Drop D(DADGBe)

You don't necessarily have to play this song in Drop D but it just seems easier. The 
i'v tabbed is played as the intro and is also played a few more times in the song.

e|---------------------------------------------------------------------------|
B|---------------------------------------------------------------------------|
G|---------------------------------------------------------------------------|
D|--4---4-4-4-4-4-4-4-5-4---4-4-4-4-4-4-4-5-2---2-2-2-2-2-2-2-5--5-----------|
A|--4---4-4-4-4-4-4-4-5-4---4-4-4-4-4-4-4-5-2---2-2-2-2-2-2-2-5--5-----------|
D|--4---4-4-4-4-4-4-4-5-4---4-4-4-4-4-4-4-5-2---2-2-2-2-2-2-2-5--5-----------|

e|---------------------------------------------------------------------------|
B|---------------------------------------------------------------------------|
G|---------------------------------------------------------------------------|
D|--5-5-5-5-5-5-5-5-4---------------------------------X2---------------------|
A|--5-5-5-5-5-5-5-5-4--------------------------------------------------------|
D|--5-5-5-5-5-5-5-5-4--------------------------------------------------------|

Then, this comes in:
e|---------------------------------------------------------------------------|
B|---------------------------------------------------------------------------|
G|--9---10--9--10-9---10--9--7/8---9--8---12--13--12---------------X2--------|
D|---------------------------------------------------------------------------|
A|---------------------------------------------------------------------------|
E|---------------------------------------------------------------------------|


| /  slide up
| \  slide down
| h  hammer-on
| p  pull-off
| ~  vibrato
| +  harmonic
| x  Mute note
===============================================================================
Related for Corporal Jigsore Quandary tab