Song name
# A B C D E F G H I J K L M N O P Q R S T U V W X Y Z

Berzerker - Farewell tab

-----------------------------------------------------------------------------
			     Farewell - The Berzerker
-----------------------------------------------------------------------------
Tabbed by: Freepower
Email: freepower@gmail.com

Had some requests for a tab via youtube based on this cover here - 
- so I've tabbed it. :)

Tuning on the original is a 6 string in A standard, although it's perfectly playable on 
7 string in Drop A.

The full song is 20 minutes long, but it is entirely composed of only 3 riffs. Tabbed in 
of appearance, they are -

Riff A

A||------------------------------|------------------------|
E||------------------------------|------------------------|
C||------------------------------|------------------------|
G||------2-5-2-------------------|---------------3--------|
D||--------------------7--5--3-2-|--3--5--3-2-0--3--------|
A||--3-5---------0-3-5-----------|---------------1--------|


Riff B

------------------------------|-------------------------|
------------------------------|-------------------------|
------------------------------|-------------------------|
------------------------------|------------5--7---------|
--------3-2----------5-3------|------3-2---5--7---------|
--0-3-5--------0-3-5--------0-|--3~5-------3--5-------0-|

----------------------------|---------------------------------|
----------------------------|---------------------------------|
----------------------------|---------------------------------|
----------------------------|------------5-5-5-5-5-5-7--------|
------3-2----------5-3------|------3-2---------------7--------|
--3-5--------0-3-5--------0-|--3~5-------------------5--------|

Riff C

--------------------------|-----------------------||
--------------------------|-----------------------||
--------------------------|-----------------------||
--------------------------|-----------------------||
------3-----------5-------|------2----3-----------||
--3-5-------0-3-5-------0-|--3-5---------5--------||
Tap to rate this tab
 
# A B C D E F G H I J K L M N O P Q R S T U V W X Y Z