Song name
# A B C D E F G H I J K L M N O P Q R S T U V W X Y Z

Best Coast - When Im With You tab

-------------------------------------------------------------------------------
			     WHEN I'M WITH YOU - Best Coast
-------------------------------------------------------------------------------
Tabbed by: Franco Nidea	
Email: franco_nidea@yahoo.com
Band Website: http://www.myspace.com/bestycoasty

Tuning: Standard

        G               E           G                 E
e|---------------------------------------------------------------------------|
B|---------------------------------------------------------------------------|
G|---------------------------------------------------------------------------|
D|------5---------------14----------5-----------------14---------------------|
A|------5---------------14----------5-----------------14---------------------|
E|------3---------------12----------3-----------------12---------------------|
     The   world   is  lazy  and   you  and  me are crazy
 


                      C           D                        C          D
e|---------------------------------------------------------------------------|
B|---------------------------------------------------------------------------|
G|--------------------5-----------7------------------------5----------7------|
D|--------------------5-----------7------------------------5----------7------|
A|--------------------3-----------5------------------------3----------5------|
E|---------------------------------------------------------------------------|
    So when I'm with you, I have fun   Yeah when I'm with you I have fun


     G                  E            G                               E
e|---------------------------------------------------------------------------|
B|---------------------------------------------------------------------------|
G|---------------------------------------------------------------------------|
D|---5------------------14-----------5-------------------------------14------|
A|---5------------------14-----------5-------------------------------14------|
E|---3------------------12-----------3-------------------------------12------|
   Ever since I was a little girl my mama always told me there'd be boys like you     



Guitar Solo

Rhythm does G E

e|---------------------------------------------------------------------------|
B|---------------------------------------------------------------------------|
G|------------------------------11-9-----11-9--------------------------------|
D|----7/9-9-9-999--7/9-9-9-999-----------------9\7---------------------------| 2x
A|---------------------------------------------------------------------------|
E|---------------------------------------------------------------------------|


Rhythm does C D

e|------------------------------------------------------------------------------------|
B|------------------------------------------------------------------------------------|
G|------------------7-9-7-----------7-9---7--------------7-9---7----------------------|
D|----77777777-9999---------777/999---------9-7--777/999---------9-7-777/999--7-------|
A|-------------------------------------------------------------------------------10---|
E|------------------------------------------------------------------------------------|



        G               E           G                 E       End at G
e|--------------------------------------------------------|-------------------|
B|--------------------------------------------------------|-------------------|
G|--------------------------------------------------------|-------------------|
D|------5---------------14----------5-----------------14--|---------5---------|
A|------5---------------14----------5-----------------14--|---------5---------|
E|------3---------------12----------3-----------------12--|---------3---------|
        I hate sleeping alone (4x)				Alone.



| /  slide up
| \  slide down
| h  hammer-on
| p  pull-off
| ~  vibrato
| +  harmonic
| x  Mute note
===============================================================================
Tap to rate this tab
 
# A B C D E F G H I J K L M N O P Q R S T U V W X Y Z