Best Coast - So Gone tab

I strongly think it's accurate.

You say that you never want me to leave...

E------------------------|
B------------------------|
G-------------4-4-4-4-4--|   2x
D--5-5-5-5-5--4-4-4-4-4--|
A--5-5-5-5-5--2-2-2-2-2--|
E--3-3-3-3-3-------------|

But now you're gone...

E------------------------|
B------------------------|
G--5-5-5-5-5-------------|   2x
D--5-5-5-5-5--5-5-5-5-5--|
A--3-3-3-3-3--5-5-5-5-5--|
E-------------3-3-3-3-3--|


THE FINAL OOOOH (play C and G)

by Eleda.
Tap to rate this tab
 
# A B C D E F G H I J K L M N O P Q R S T U V W X Y Z